PrimaNota.ru - самый крупный в мире бесплатный архив песенных текстов, аккордов, табулатур и нот


Dispatch - Four Day Tirals - таба, видео

Регистрация Запомнить меня
Войти через:  Facebook Google Twitter Vk Yandex Mail.ru

Dispatch - Four Day Tirals - таба, видео

Печатать
Просмотров: 134
Уроки эстрадного вокала в Санкт-Петербурге
Dispatch/One Fell Swoop
Four-Day Trials
What Do You Wanna Be
Tabbed by Owen Sakovics
www.tabsinonefellswoop.com

--------------------------------------------------|
--------------------------------------------------|
-------6--6---6-------6--9-9-9-6--------6--9-6-9--|	x1
------------6-------------------------------------|
--------------------------------------------------|
-7h8h9-----------7h8h9------------7h8h9-----------|

			 			    B
-------------------------------------------------------|
-------------------------------------------------------|
-------6--6---9--------6--9-9-9-6--------6--6---6------|	x2
------------6---------------------------------6--------|
----------------------------------------------------9--|
-7h8h9-----------7h8h9-------------7h8h9------------7--|

**BASS & DRUMS**

			 			    B
-------------------------------------------------------|
-------------------------------------------------------|
-------6--6---9--------6--9-9-9-6--------6--6---6------|	x2
------------6---------------------------------6--------|
----------------------------------------------------9--|
-7h8h9-----------7h8h9-------------7h8h9------------7--|


 E   C#m E   C#m E   C#m B   E	 C#m E   C#m E   C#m
-4---4---4---4---4---4---2---4---4---4---4---4---4--|
-5---5---5---5---5---5---4---5---5---5---5---5---5--|
-4---6---4---6---4---6---4---4---6---4---6---4---6--|	x1
-6---6---6---6---6---6---4---6---6---6---6---6---6--|
-----4-------4-------4---2-------4-------4-------4--|
----------------------------------------------------|

 E   C#m E   B 	 E   C#m E   B 	 E   C#m E   B 	 C#m
-4---4---4---2---4---4---4---2---4---4---4---2---4--|
-5---5---5---4---5---5---5---4---5---5---5---4---5--|
-4---6---4---4---4---6---4---4---4---6---4---4---6--|	x2
-6---6---6---4---6---6---6---4---6---6---6---4---6--|
-----4-------2-------4-------2-------4-------2---4--|
----------------------------------------------------|

			 			    B
-------------------------------------------------------|
-------------------------------------------------------|
-------6--6---9--------6--9-9-9-6--------6--6---6------|	x4
------------6---------------------------------6--------|
----------------------------------------------------9--|
-7h8h9-----------7h8h9-------------7h8h9------------7--|

 C#m	C#m	C#m	B
-4------4-------4-------2--|
-5------5-------5-------4--|
-6------6-------6-------4--|	x2
-6------6-------6-------4--|
-4------4-------4-------2--|
---------------------------|

 E   C#m E   B 	 E   C#m E   B 	 E   C#m E   B 	 C#m
-4---4---4---2---4---4---4---2---4---4---4---2---4--|
-5---5---5---4---5---5---5---4---5---5---5---4---5--|
-4---6---4---4---4---6---4---4---4---6---4---4---6--|	x2
-6---6---6---4---6---6---6---4---6---6---6---4---6--|
-----4-------2-------4-------2-------4-------2---4--|
----------------------------------------------------|

 C#m	C#m	C#m	C#m
-4------4-------4-------4--|
-5------5-------5-------5--|
-6------6-------6-------6--|	x4
-6------6-------6-------6--|
-4------4-------4-------4--|
---------------------------|

 E   C#m E   B 	 E   C#m E   B 	 E   C#m E   B 	 C#m
-4---4---4---2---4---4---4---2---4---4---4---2---4--|
-5---5---5---4---5---5---5---4---5---5---5---4---5--|
-4---6---4---4---4---6---4---4---4---6---4---4---6--|	x2
-6---6---6---4---6---6---6---4---6---6---6---4---6--|
-----4-------2-------4-------2-------4-------2---4--|
----------------------------------------------------|

						  	C#m
--------------------------------------------------------4--|
--------------------------------------------------------5--|
-------------------------------6---------9-9-9-6--------6--|	x1
-----------------------------6--------------------------6--|
--------------------------------------------------------4--|
-7h9------7h8h9------7h8h9--------7h8h9--------------------|

Dispatch/One Fell Swoop
Four-Day Trials
Bullet Holes
Tabbed by Owen Sakovics
www.tabsinonefellswoop.com

 Eb	Bb	Cm	Cm	Eb	Bb	Cm	Cm
-3------1-------3-------3-------3-------1-------3-------3--|
-4------3-------4-------4-------3-------3-------4-------4--|
-3------3-------5-------5-------3-------3-------5-------5--|	x7
-5------3-------5-------5-------5-------3-------5-------5--|
-6------1-------3-------3-------6-------1-------3-------3--|
-----------------------------------------------------------|

 Eb	Bb	Cm	Ab	Eb	Bb	Cm	Ab
-3------1-------3-------4-------3-------1-------3-------4--|
-4------3-------4-------4-------4-------3-------4-------4--|
-3------3-------5-------5-------3-------3-------5-------5--|	x1
-5------3-------5-------6-------5-------3-------5-------6--|
-6------1-------3-------6-------6-------1-------3-------6--|
------------------------4-------------------------------4--|

 Eb	Bb	Cm	Ab	Eb	Bb	Cm	Ab	Ab	Bb
-3------1-------3-------4-------3-------1-------3-------4-------4-------6--|
-4------3-------4-------4-------4-------3-------4-------4-------4-------6--|
-3------3-------5-------5-------3-------3-------5-------5-------5-------7--|	x1
-5------3-------5-------6-------5-------3-------5-------6-------6-------8--|
-6------1-------3-------6-------6-------1-------3-------6-------6-------8--|
------------------------4-------------------------------4-------4-------6--|

 Eb	Bb	Cm	Cm	Eb	Bb	Cm	Cm
-3------1-------3-------3-------3-------1-------3-------3--|
-4------3-------4-------4-------3-------3-------4-------4--|
-3------3-------5-------5-------3-------3-------5-------5--|	x8
-5------3-------5-------5-------5-------3-------5-------5--|
-6------1-------3-------3-------6-------1-------3-------3--|
-----------------------------------------------------------|

 Eb	Bb	Cm	Ab	Eb	Bb	Cm	Ab
-3------1-------3-------4-------3-------1-------3-------4--|
-4------3-------4-------4-------4-------3-------4-------4--|
-3------3-------5-------5-------3-------3-------5-------5--|	x1
-5------3-------5-------6-------5-------3-------5-------6--|
-6------1-------3-------6-------6-------1-------3-------6--|
------------------------4-------------------------------4--|

 Eb	Bb	Cm	Ab	Eb	Bb	Cm	Ab	Ab	Bb
-3------1-------3-------4-------3-------1-------3-------4-------4-------6--|
-4------3-------4-------4-------4-------3-------4-------4-------4-------6--|
-3------3-------5-------5-------3-------3-------5-------5-------5-------7--|	x1
-5------3-------5-------6-------5-------3-------5-------6-------6-------8--|
-6------1-------3-------6-------6-------1-------3-------6-------6-------8--|
------------------------4-------------------------------4-------4-------6--|

 Eb	Bb	Cm	Cm	Eb	Bb	Cm      Cm
-3------1-------3-------3-------3-------1-------3-------3--|
-4------3-------4-------4-------3-------3-------4-------4--|
-3------3-------5-------5-------3-------3-------5-------5--|	x2
-5------3-------5-------5-------5-------3-------5-------5--|
-6------1-------3-------3-------6-------1-------3-------3--|
-----------------------------------------------------------|

 Fm	Eb	Cm	Ab	Fm	Eb	Cm	Ab
-4------3-------3-------4-------4-------3-------3-------4--|
-6------4-------4-------4-------6-------4-------4-------4--|
-5------3-------5-------5-------5-------3-------5-------5--|	x4
-6------5-------5-------6-------6-------5-------5-------6--|
--------6-------3-------6---------------6-------3-------6--|
------------------------4-------------------------------4--|

 Fm	Eb	Cm	Ab	Fm	Eb	Cm	Ab	Ab	Bb
-4------3-------3-------4-------4-------3-------3-------4-------4-------6--|
-6------4-------4-------4-------6-------4-------4-------4-------4-------6--|
-5------3-------5-------5-------5-------3-------5-------5-------5-------7--|	x1
-6------5-------5-------6-------6-------5-------5-------6-------6-------8--|
--------6-------3-------6---------------6-------3-------6-------6-------8--|
------------------------4-------------------------------4-------4-------6--|

 Eb	Bb	Cm	Cm	Eb	Bb	Cm      Cm
-3------1-------3-------3-------3-------1-------3-------3--|
-4------3-------4-------4-------3-------3-------4-------4--|
-3------3-------5-------5-------3-------3-------5-------5--|	x2
-5------3-------5-------5-------5-------3-------5-------5--|
-6------1-------3-------3-------6-------1-------3-------3--|
-----------------------------------------------------------|

SOLO:
 Eb		     Cm
-6-------------------8------------------------------------------------------------------------|
-8-------------------8------------------------------------------------------------------------|
-8-------------------8-----------------------------------------------------7-8p7------7-------|
-8-------------------10--------------------------8----------------------10-------10-8---10-8--|
-6------6-8--8s10----10------6-8------5-6-8-8s10---10---6-----6--8-8s10-----------------------|
----6h8-----------8--8---6h8------6-8---------------------6h8---------------------------------|

		   Cm
-------------------8---6---6-------6-6-6---------6---6---------6-6-6-------6---6-------6-6-6-6-6-----6---6-------6-6-6--|
-------------------8---6h8-6-6-6-6-6-8-6-6-6-6-6-6h8-6-6-6-6-6-8-8-6-6-6-6-6h8-6-6-6-6-6-8-6-8-6-6-6-6h8-6-6-6-6-6-8-8--|
-------------------8---------8-7-8-------8-7-8-7-------8-7-8-7-------8-7-8-------8-7-8-----------8-7-------8-7-8--------|
-------------------10---------------------------------------------------------------------------------------------------|
-6-----6-8-8s10----10---------------------------------------------------------------------------------------------------|
---6h8----------8--8----------------------------------------------------------------------------------------------------|

-------------------------------------------------------------------------------|
-------------------------------------------------------------------------------|
----------------------------7-8-10-8-7-------------------10-8-7----------------|
------8------10-------8-10-------------------8-------10---------10-8-10b11r10--|
-8h10---8h10-----8h10-------------------8h10----8h10---------------------------|
-------------------------------------------------------------------------------|

----------------------------------------------------------------|
----------------------------------------------------------------|
----------------------------7-8-10-8-7--------------------------|
------8------10-------8-10-------------------8-------10--11r10--|
-8h10---8h10-----8h10-------------------8h10----8h10------------|
----------------------------------------------------------------|

**BASS LINE**

 Eb	Bb						Cm	Cm
-3------1---------6--3------------------------------------------3--|
-4------3-------x------4--3h4p3---3s1---1-----------------------4--|
-3------3-----x-----------------5-----3--------3----------------5--|	x1
-5------3---x------------------------------------5p3----5-------5--|
-6------1----------------------------------3-5-------5--3-------3--|
-------------------------------------------------------------------|


Dispatch/One Fell Swoop
Four-Day Trials
Wide Right Turns
Tabbed by Owen Sakovics
www.tabsinonefellswoop.com

-----------------------------|
-1p0--1p0--1p0--3p0-3p0-3p0--|
-----------------------------|	x6
-----------------------------|
-----------------------------|
-----------------------------|

--------------------------------|
-1p0--1p0--1p0--3p0-3p0-3p0--3--|
--------------------------------|	x1
--------------------------------|
--------------------------------|
--------------------------------|

----------------------------------------------------10--|
----------------------------------------------------10--|
----5---5s7-x-7-----5-5-x-5s7-7-----5-5s7-7-7-7s10--10--|	x1
------x--------------------------0----------------------|
-s5--------------s5----------------5--------------------|
--------------------------------------------------------|

-------------------------------------------------------------|
-------------------------------------------------------------|
-----5--5--5--5s7---5-5-5s7--7--7----5-5-5-5-5-5-5-5-5s7--7--|	x1
-----------------------------------0-------------------------|
-5-5---------------------------------------------------------|
-------------------------------------------------------------|

-----------------------------------------|
-----------------------------------------|
-----------------------------------------|	x1
-4h5-4-0---4h5-4-7---4h5-4-2s0--0s4-4s0--|
-----------------------------------------|
-----------------------------------------|

----------------------------------------|
-1---1---1----1---1--3---3---3---3---3--|
---2---2----2---2------2---2---2---2----|	x3
----------------------------------------|
----------------------------------------|
----------------------------------------|

---0---0---0---0---0------1---1---1---1---1--1--|
------------------------------------------------|
-2---2---2---2---2---2--2---2---2---2---2-------|	x1
------------------------------------------------|
------------------------------------------------|
------------------------------------------------|

-1-1--1-1--1-1--1--1------------------------------1---1----1-3-3b5-5-5-5r3-1--|
---------------------3--3-3--1-1-1-1-1-1-3--3-3-----3---3---------------------|
------------------------------------------------------------------------------|
------------------------------------------------------------------------------|
------------------------------------------------------------------------------|
------------------------------------------------------------------------------|

-1-1--1-1--1-1--1--1------------------------------1---1---1---1--------1--1-1-0--1-0-------------|
---------------------3--3-3--1-1-1-1-1-1-3--3-3-----3---3---3---3--3-3---------------3--3-3-3s5--|
-------------------------------------------------------------------------------------------------|
-------------------------------------------------------------------------------------------------|
-------------------------------------------------------------------------------------------------|
-------------------------------------------------------------------------------------------------|

-1-1--1-1--1-1--1--1------------------------------1---1---1---1----|
---------------------3--3-3--1-1-1-1-1-1-3--3-3-----3---3---3---3--|
-------------------------------------------------------------------|
-------------------------------------------------------------------|
-------------------------------------------------------------------|
-------------------------------------------------------------------|

-----------------------------------------------------------------------------------------------------|
-1p0--1p0--1p0--3p0-3p0-3p0---1p0--1p0--1p0--3p0-3p0-3p0---1p0--1p0--1p0--3p0-3p0-3p0---1p0--1p0--0--|
-----------------------------------------------------------------------------------------------------|	x1
-----------------------------------------------------------------------------------------------------|
-----------------------------------------------------------------------------------------------------|
-----------------------------------------------------------------------------------------------------|

-0-1--0-1--0-1--0-1--0--|
-1-3--1-3--1-3--1-3--1--|
------------------------|	x1
------------------------|
------------------------|
------------------------|

--------------------------------|
----3-----3-----3----5---5---5--|
-2-----2-----2-----4---4---4----|	x4
--------------------------------|
--------------------------------|
--------------------------------|

--------------------------------0--|
----3-----3-----3----5---5---5--5--|
-2-----2-----2-----4---4---4----4--|	x1
-----------------------------------|
-----------------------------------|
-----------------------------------|


Dispatch/One Fell Swoop
Four-Day Trials
Here We Go
Tabbed by Owen Sakovics
www.tabsinonefellswoop.com

 Bm	A5	F#	E	Bm	A5	F#   G F#  E
-2------0-------2-------0-------2-------0-------2----3-2---0--|
-3------0-------2-------0-------3-------0-------2----3-2---0--|
-4------2-------3-------1-------4-------2-------3----4-3---1--|	x1
-4------2-------4-------2-------4-------2-------4----5-4---2--|
-2------0-------4-------2-------2-------0-------4----5-4---2--|
----------------2-------0-----------------------2----3-2---0--|

 Bm	A	F#	E	Bm	A	F#	E
-2------0-------2-------0-------2-------0-------2-------0--|
-3------2-------2-------0-------3-------2-------2-------0--|
-4------2-------3-------1-------4-------2-------3-------1--|	x11
-4------2-------4-------2-------4-------2-------4-------2--|
-2------0-------4-------2-------2-------0-------4-------2--|
----------------2-------0-----------------------2-------0--|

 Bm			Bm		F#
-2----------------------2---------------2--|
-3----------------------3---------------2--|
-4----------------------4---------------3--|	x1
-4----------------------4---------------4--|
-2----------------------2---------------4--|
----------------------------------------2--|

 Bm	A	F#	E	Bm	A	F#	G
-2------0-------2-------0-------2-------0-------2-------3--|
-3------2-------2-------0-------3-------2-------2-------3--|
-4------2-------3-------1-------4-------2-------3-------4--|	x1
-4------2-------4-------2-------4-------2-------4-------5--|
-2------0-------4-------2-------2-------0-------4-------5--|
----------------2-------0-----------------------2-------3--|

 D	F#	E	Bm
-5------2-------7-------7--|
-7------2-------9-------7--|
-7------3-------9-------7--|	x2
-7------4-------9-------9--|
-5------4-------7-------9--|
--------2---------------7--|

 Bm	A	F#	E
-2------0-------2-------0--|
-3------2-------2-------0--|
-4------2-------3-------1--|	x9
-4------2-------4-------2--|
-2------0-------4-------2--|
----------------2-------0--|

 Bm	A	F#	E   Bm
-2------0-------2-------0---2--|
-3------2-------2-------0---3--|
-4------2-------3-------1---4--|	x1
-4------2-------4-------2---4--|
-2------0-------4-------2---2--|
----------------2-------0------|

 D	F#	E	Bm  	A
-5------2-------7-------2-------0--|
-7------2-------9-------3-------2--|
-7------3-------9-------4-------2--|	x2
-7------4-------9-------4-------2--|
-5------4-------7-------2-------0--|
--------2--------------------------|

 D	F#	E	Bm
-5------2-------7-------7--|
-7------2-------9-------7--|
-7------3-------9-------7--|	x1
-7------4-------9-------9--|
-5------4-------7-------9--|
--------2---------------7--|

 Bm	A	F#	E	Bm	A	F#	E
-2------0-------2-------0-------2-------0-------2-------0--|
-3------2-------2-------0-------3-------2-------2-------0--|
-4------2-------3-------1-------4-------2-------3-------1--|	x6
-4------2-------4-------2-------4-------2-------4-------2--|
-2------0-------4-------2-------2-------0-------4-------2--|
----------------2-------0-----------------------2-------0--|

 Bm	A	F#	E	Bm	A	F#	E   Bm
-2------0-------2-------0-------2-------0-------2-------0---2--|
-3------2-------2-------0-------3-------2-------2-------0---3--|
-4------2-------3-------1-------4-------2-------3-------1---4--|	x1
-4------2-------4-------2-------4-------2-------4-------2---4--|
-2------0-------4-------2-------2-------0-------4-------2---2--|
----------------2-------0-----------------------2-------0------|

-----------------------------------------------------------------3--3-----3-3--|
---------------------------------6----------------5--------------3--3-x---3-3--|
------------7--------------------7-x-7------------5--------------4--4-x---4-4--|	x1
-3h5p3------8-8------5h7p5---5h7---x-7--7b8r7-5-5-5-5--5b6r5-3---5--5-x---5-5--|
-------5------8--5h8-------8---------5-------------------------5-5--5-----5-5--|
---------s6---6--------------------------------------------------3--3---3-3-3--|

 Bb	Dm	C	G
-6------5-------3-------3--|
-6------6-------5-------3--|
-7------7-------5-------4--|	x12
-8------7-------5-------5--|
-8------5-------3-------5--|
-6----------------------3--|

 Bb	F	Cm	Gm	Eb	F
-6------1-------3-------3-------6-------1--|
-6------1-------4-------3-------8-------1--|
-7------2-------5-------3-------8-------2--|	x1
-8------3-------5-------5-------8-------3--|
-8------3-------3-------5-------6-------3--|
-6------1---------------3---------------1--|

 Dm	Gm	C9	D5	D5
-5------3-------3------------------|
-6------3-------3------------------|
-7------3-------3-------7-------7--|	x1
-7------5-------2-------7-------7--|
-5------5-------3-------5-------5--|
--------3--------------------------|

 Bb	Dm	C	G
-6------5-------3-------3--|
-6------6-------5-------3--|
-7------7-------5-------4--|	x3
-8------7-------5-------5--|
-8------5-------3-------5--|
-6----------------------3--|

 Bb	Dm	C	G   	Bb	C	C#
-6------5-------3-------3-------1-------3-------4--|
-6------6-------5-------3-------3-------5-------6--|
-7------7-------5-------4-------3-------5-------6--|	x1
-8------7-------5-------5-------3-------5-------6--|
-8------5-------3-------5-------1-------3-------4--|
-6----------------------3--------------------------|

 Dm		   F	   Dm	             F
-5-x-x-5---5-5-x-x-5-------5-x-x-5---5-5-x-x-5--|
-6-x-x-5h6-6-6-x-x-6-------6-x-x-5h6-6-6-x-x-6--|
-7-x-x-5h7-7-7-x-x-5-------7-x-x-5h7-7-7-x-x-5--|	x1
-7-x-x-5h7-7-7-x-x-7-------7-x-x-5h7-7-7-x-x-7--|
-5-x-x-5---5-5-x-x-8-------5-x-x-5---5-5-x-x-8--|
------------------------------------------------|

 Dm		   F	   C
-5-x-x-5---5-5-x-x-5-------3--|
-6-x-x-5h6-6-6-x-x-6-------5--|
-7-x-x-5h7-7-7-x-x-5-------5--|	x1
-7-x-x-5h7-7-7-x-x-7-------5--|
-5-x-x-5---5-5-x-x-8-------3--|
------------------------------|

------------------------------------------------------------------|
------------------------------------------------------------------|
------------------------------------------------------------------|	x1
------------------------------------------------------------------|
-5-x-x-5-x-5-5-x-x-3-x-x-5-5-x-x-5-5-x-x-3-x-x-5-5-x-x-5-5-x-x-3--|
------------------------------------------------------------------|

 Dm		   C	 Dm		 C     Dm              C
-5-x-x-5-x-5-5-x-x-3-x-x-5-5-x-x-5-5-x-x-3-x-x-5-5-x-x-5-5-x-x-3--|
-6-x-x-6-x-6-6-x-x-5-x-x-6-6-x-x-6-6-x-x-5-x-x-6-6-x-x-6-6-x-x-5--|
-7-x-x-7-x-7-7-x-x-5-x-x-7-7-x-x-7-7-x-x-5-x-x-7-7-x-x-7-7-x-x-5--|	x1
-7-x-x-7-x-7-7-x-x-5-x-x-7-7-x-x-7-7-x-x-5-x-x-7-7-x-x-7-7-x-x-5--|
-5-x-x-5-x-5-5-x-x-3-x-x-5-5-x-x-5-5-x-x-3-x-x-5-5-x-x-5-5-x-x-3--|
------------------------------------------------------------------|

 Dm 		   F      Dm	              F	     Dm		       F   C	C#
-5-x-x-5---5-5-x-x-5------5-x-x-5---x-x-x-x-x-5------5-x-x-5---5-5-x-x-5---3----4--|
-6-x-x-5h6-6-6-x-x-6------6-x-x-5h6-x-x-x-x-x-6------6-x-x-5h6-6-6-x-x-6---5----6--|
-7-x-x-5h7-7-7-x-x-5------7-x-x-5h7-x-x-x-x-x-5------7-x-x-5h7-7-7-x-x-5---5----6--|	x1
-7-x-x-5h7-7-7-x-x-7------7-x-x-5h7-x-x-x-x-x-7------7-x-x-5h7-7-7-x-x-7---5----6--|
-5-x-x-5---5-5-x-x-8------5-x-x-5---x-x-x-x-x-8------5-x-x-5---5-5-x-x-8---3----4--|
-----------------------------------------------------------------------------------|

 Dm 		   F      Dm	              F	     Dm		       F   C	C#    Dm      Dm
-5-x-x-5---5-5-x-x-5------5-x-x-5---x-x-x-x-x-5------5-x-x-5---5-5-x-x-5---3----4-----5-------5--|
-6-x-x-5h6-6-6-x-x-6------6-x-x-5h6-x-x-x-x-x-6------6-x-x-5h6-6-6-x-x-6---5----6-----6-------6--|
-7-x-x-5h7-7-7-x-x-5------7-x-x-5h7-x-x-x-x-x-5------7-x-x-5h7-7-7-x-x-5---5----6-----7-------7--|	x1
-7-x-x-5h7-7-7-x-x-7------7-x-x-5h7-x-x-x-x-x-7------7-x-x-5h7-7-7-x-x-7---5----6-----7-------7--|
-5-x-x-5---5-5-x-x-8------5-x-x-5---x-x-x-x-x-8------5-x-x-5---5-5-x-x-8---3----4-----5-------5--|
-------------------------------------------------------------------------------------------------|


Dispatch/One Fell Swoop
Four-Day Trials
Mission
Tabbed by Owen Sakovics
www.tabsinonefellswoop.com

 Db	Ebm	Db	Ab	Bbm	Ab
-4------6-------4-------4-------6-------4--|
-6------7-------6-------4-------6-------4--|
-6------8-------6-------5-------6-------5--|	x3
-6------8-------6-------6-------8-------6--|
-4------6-------4-------6-------8-------6--|
------------------------4-------6-------4--|

 Db	Ebm	Db	Ab	Bbm	Ab	Gb
-4------6-------4-------4-------6-------4-------2--|
-6------7-------6-------4-------6-------4-------2--|
-6------8-------6-------5-------6-------5-------3--|	x1
-6------8-------6-------6-------8-------6-------4--|
-4------6-------4-------6-------8-------6-------4--|
------------------------4-------6-------4-------2--|

 Db	Ebm	Db	Ab	Bbm	Ab
-4------6-------4-------4-------6-------4--|
-6------7-------6-------4-------6-------4--|
-6------8-------6-------5-------6-------5--|	x2
-6------8-------6-------6-------8-------6--|
-4------6-------4-------6-------8-------6--|
------------------------4-------6-------4--|

 Bbm	Gb	F	Bbm	Gb	F	Bbm	Gb		Bbm	Gb	F
-6------6-------5-------6-------6-------5-------6-------6---------------6-------6-------5--|
-6------7-------6-------6-------7-------6-------6-------7---------------6-------7-------6--|
-6------6-------5-------6-------6-------5-------6-------6---------------6-------6-------5--|	x1
-8------8-------7-------8-------8-------7-------8-------8---------------8-------8-------7--|
-8------9-------8-------8-------9-------8-------8-------9---------------8-------9-------8--|
-6----------------------6-----------------------6-----------------------6------------------|

 Ab	Eb	Gb	Ab
-4------6-------6-------4--|
-4------8-------7-------4--|
-5------8-------6-------5--|	x1
-6------8-------8-------6--|
-6------6-------9-------6--|
-4----------------------4--|

 Db	Ebm	Db	Ab	Bbm	Ab
-4------6-------4-------4-------6-------4--|
-6------7-------6-------4-------6-------4--|
-6------8-------6-------5-------6-------5--|	x2
-6------8-------6-------6-------8-------6--|
-4------6-------4-------6-------8-------6--|
------------------------4-------6-------4--|

 Db	Ebm	Db	Ab	Bbm	Ab	Gb
-4------6-------4-------4-------6-------4-------2--|
-6------7-------6-------4-------6-------4-------2--|
-6------8-------6-------5-------6-------5-------3--|	x1
-6------8-------6-------6-------8-------6-------4--|
-4------6-------4-------6-------8-------6-------4--|
------------------------4-------6-------4-------2--|

 Db	Ebm	Db	Ab	Bbm	Ab 	Db	Ebm	Db	Ab	Ab
-4------6-------4-------4-------6-------4-------4-------6-------4-------4-------4--|
-6------7-------6-------4-------6-------4-------6-------7-------6-------4-------4--|
-6------8-------6-------5-------6-------5-------6-------8-------6-------5-------5--|	x1
-6------8-------6-------6-------8-------6-------6-------8-------6-------6-------6--|
-4------6-------4-------6-------8-------6-------4-------6-------4-------6-------6--|
------------------------4-------6-------4-------------------------------4-------4--|

 Bbm	Gb	F	Bbm	Gb	F	Bbm	Gb		Bbm	Gb	F
-6------6-------5-------6-------6-------5-------6-------6---------------6-------6-------5--|
-6------7-------6-------6-------7-------6-------6-------7---------------6-------7-------6--|
-6------6-------5-------6-------6-------5-------6-------6---------------6-------6-------5--|	x1
-8------8-------7-------8-------8-------7-------8-------8---------------8-------8-------7--|
-8------9-------8-------8-------9-------8-------8-------9---------------8-------9-------8--|
-6----------------------6-----------------------6-----------------------6------------------|

 Ab	Eb	Gb	Ab
-4------6-------6-------4--|
-4------8-------7-------4--|
-5------8-------6-------5--|	x1
-6------8-------8-------6--|
-6------6-------9-------6--|
-4----------------------4--|

 Gb	Bbm	Ab	Bbm	Gb	Bbm	Ab	F
-6------6-------4-------6-------6-------6-------4-------1--|
-7------6-------4-------6-------7-------6-------4-------1--|
-6------6-------5-------6-------6-------6-------5-------2--|	x1
-8------8-------6-------8-------8-------8-------6-------3--|
-9------8-------6-------8-------9-------8-------6-------3--|
--------6-------4-------6---------------6-------4-------1--|

 Db	Ebm	Db	Ab	Bbm	Ab
-4------6-------4-------4-------6-------4--|
-6------7-------6-------4-------6-------4--|
-6------8-------6-------5-------6-------5--|	x2
-6------8-------6-------6-------8-------6--|
-4------6-------4-------6-------8-------6--|
------------------------4-------6-------4--|

 Bbm	Gb	F	Bbm	Gb		Bbm	Gb	F	Bbm	Gb
-6------6-------5-------6-------6---------------6-------6-------5-------6-------6--|
-6------7-------6-------6-------7---------------6-------7-------6-------6-------7--|
-6------6-------5-------6-------6---------------6-------6-------5-------6-------6--|	x1
-8------8-------7-------8-------8---------------8-------8-------7-------8-------8--|
-8------9-------8-------8-------9---------------8-------9-------7-------8-------9--|
-6----------------------6-----------------------6-----------------------6----------|

Dispatch/One Fell Swoop
Four-Day Trials
Hubs
Tabbed by Owen Sakovics
www.tabsinonefellswoop.com

-----5-8-5------5-----------------|
---5-------8-5----5--8----5-------|
-5---------------------7----5--7--| x1
----------------------------------|
----------------------------------|
----------------------------------|

 Dm 	Am
-5------5--|
-6------5--|
-7------5--| x7
-7------7--|
-5------7--|
--------5--|

-8------8--|
-6------6--|
-5------5--| x1
-7------7--|
-5------5--|
-----------|

 Am 	Dm	Am
-5------5-------5--|
-5------6-------5--|
-5------7-------5--| x1
-7------7-------7--|
-7------5-------7--|
-5--------------5--|

---------------------------------------------------------------|
-s5------------------------------------------------------------|
----7-5-4-----------5-7b8-8r7-5-----------------5-7b8--8r7-5---|	x1
---------------7--7-------------7p5--------7--7--------------7-|
-----------5h7----------------------7--5h7---------------------|
---------------------------------------------------------------|

-----------------------------------------------------------|
-----------------------------------------------------------|
----------5-7b8-8r7-5------------------5-7b8-8-8-8-8-8r7-5-| x1
-----7--7-------------7p5---------7--7---------------------|
-5h7----------------------7---5h7--------------------------|
-----------------------------------------------------------|

 Am	Dm	Am	Dm
-5------5-------5-------5---8---|
-5------6-------5-------6---6---|
-5------7-------5-------7---5---| x2
-7------7-------7-------7---7---|
-7------5-------7-------5---5---|
-5--------------5---------------|

 Am	Dm	Am
-5------5-------5-------8--|
-5------6-------5-------6--|
-5------7-------5-------5--| x1
-7------7-------7-------7--|
-7------5-------7-------5--|
-5--------------5----------|


 Gm 	Am
-6------5-------8--|
-7------5-------6--|
-6------5-------5--|	x1
-7------7-------7--|
--------7-------5--|
--------5----------|

 F 	C 	Am 	Am 	F 	C 	Am 	Am
-5------8-------8-------12------5-------8-------5-------5--|
-6------8-------10------13------6-------8-------5-------5--|
-5------9-------8-------14------5-------9-------5-------5--| x1
-7------10------10------14------7-------10------7-------7--|
-8------10--------------12------8-------10------7-------7--|
--------8-------------------------------8-------5-------5--|

 Am	Dm	Am	Dm
-5------5-------5-------5---8---|
-5------6-------5-------6---6---|
-5------7-------5-------7---5---| x2
-7------7-------7-------7---7---|
-7------5-------7-------5---5---|
-5--------------5---------------|

 Gm 	Am
-6------5-------8--|
-7------5-------6--|
-6------5-------5--|	x2
-7------7-------7--|
--------7-------5--|
--------5----------|

 F 	C 	Am 	Am 	F 	C 	Am  Dm	Am  G	Am  Dm	Am  G
-5------8-------8-------12------5-------8-------5---5---5---3---5---5---5---3--|
-6------8-------10------13------6-------8-------5---6---5---3---5---6---5---3--|
-5------9-------8-------14------5-------9-------5---7---5---4---5---7---5---4--|	x1
-7------10------10------14------7-------10------7---7---7---5---7---7---7---5--|
-8------10--------------12------8-------10------7---5---7---5---7---5---7---5--|
--------8-------------------------------8-------5-------5---3---5-------5---3--|

 Am 	Dm	Am
-5------5-------5-------8--|
-5------6-------5-------6--|
-5------7-------5-------5--|	x1
-7------7-------7-------7--|
-7------5-------7----------|
-5--------------5----------|

LEAD II:
--------------------------------------------------------------------------------------------------------|
--------------------------------------------------------------------------------------------------------|
----------5-7b8-8r7-5------------------5--7b8--8r7-5--------------5-7b8-8r7-5------------------5-7-7b8--|
-----7--7-------------7p5---------7--7---------------7-------7--7-------------7p5---------7--7----------|
-5h7----------------------7---5h7------------------------5h7----------------------7---5h7---------------|
--------------------------------------------------------------------------------------------------------|

-----------------------------------------------------------------------------------------|
-s5-------------5b6r5-------------------------7-8-7-----8p7---8p7---8p7---8p7------------|
----7p5-7--5-7-------------7---7-9s11-9-7-9---------9-------9-----9-----9-----9--10r9p7--|
-----------------------7h9---9-----------------------------------------------------------|
-----------------------------------------------------------------------------------------|
-----------------------------------------------------------------------------------------|

--------------------------------------------------------5-------------5-------------5-------------5----------|
----------------------------------------------------------5-7---5-------5-7---5-------5-7---5-------5-7---5--|
-7-------7-------7-------7-------7-------7-------7s9-7--------7---4-7-------7---4-7-------7---4-7-------7----|
---9p7-9---9p7-9---9p7-9---9p7-9---9p7-9---9p7-9-------------------------------------------------------------|
-------------------------------------------------------------------------------------------------------------|
-------------------------------------------------------------------------------------------------------------|

--------------------------------5-------------5-------------5---------------------------------------------------|
-----------------------5b6-5------5-7---5-------5-7---5-------5-7---5------------------------5-5b6-6-6-6-6r5----|
-4-7-4-7-4-7-4-7p4-4-7-------7--------7---4-7-------7---4-7-------7---4-7--4-7--4-7--4-7-4-7-----------------7--|
----------------------------------------------------------------------------------------------------------------|
----------------------------------------------------------------------------------------------------------------|
----------------------------------------------------------------------------------------------------------------|

-5-------------5-------------5--------------5---------------------10----10-12-12b14-14-14-14-14-14-14-14-14-14r12--|
---5-7---5-------5-7---5-------5-7---5--------5-7--------10-10s12----12--------------------------------------------|
-------7---4-7-------7---4-7-------7---4--7-------7--s11-----------------------------------------------------------|
-------------------------------------------------------------------------------------------------------------------|
-------------------------------------------------------------------------------------------------------------------|
-------------------------------------------------------------------------------------------------------------------|

-----------------14-17--14-17--14-17--14-17--14-17-----9-10-9-------------------9-10-9----------------|
-10-12-10h12-10-------------------------------------12--------12----6-7-6----12--------12----6-7-6----|
------------------------------------------------------------------9-------9----------------9-------9--|
------------------------------------------------------------------------------------------------------|
------------------------------------------------------------------------------------------------------|
------------------------------------------------------------------------------------------------------|

---------------------------------------------------------------|
---------------------------------------------------------------|
-5-----------------5----------------5--------------------------|
---5-7---5-----------5-7---5----------5-7---5---------------5--|
-------7---7-5-----------7--7-5-----------7---7-5-----5-6-7----|
---------------8-5--------------8-5---------------8-5----------|

---------------------------------------------------------------|
---------------------------------------------------------------|
-5-----------------5----------------5--------------------------|
---5-7---5-----------5-7---5----------5-7---5---------------5--|
-------7---7-5-----------7--7-5-----------7---7-5-----5-6-7----|
---------------8-5--------------8-5---------------8-5----------|

---------------------------------------------------------------|
---------------------------------------------------------------|
-5-----------------5----------------5--------------------------|
---5-7---5-----------5-7---5----------5-7---5---------------5--|
-------7---7-5-----------7--7-5-----------7---7-5-----5-6-7----|
---------------8-5--------------8-5---------------8-5----------|

---------------------------------------------------------------|
---------------------------------------------------------------|
-5-----------------5----------------5--------------------------|
---5-7---5-----------5-7---5----------5-7---5------------------|
-------7---7-5-----------7--7-5-----------7---7-5-----5-6-7----|
---------------8-5--------------8-5---------------8-5----------|

 Am 	Dm	Am
-5------5-------5-------8--|
-5------6-------5-------6--|
-5------7-------5-------5--|	x1
-7------7-------7-------7--|
-7------5-------7----------|
-5--------------5----------|

 Am	Dm
-5------5--|
-5------6--|
-5------7--|	x6
-7------7--|
-7------5--|
-5---------|
				    Am
------------------------------------5--|
-8---5------------------------------5--|
---7---5-7---5----------------------5--|	x1
-----------7---5-7---5--------------7--|
-------------------7---5-7---5------7--|
---------------------------8---8-5--5--|


Dispatch/One Fell Swoop
Four-Day Trials
Root Down
Tabbed by Owen Sakovics
www.tabsinonefellswoop.com

 Bb5	Bb5	G5	G5	G5	F	G5	G5	G5	Bb5
---------------------------------------------------------------------------|
---------------------------------------------------------------------------|
---------------------------------------------------------------------------|	x1
-8------8-------5-------5-------5-------3-------5-------5-------5-------8--|
-8------8-------5-------5-------5-------3-------5-------5-------5-------8--|
-6------6-------3-------3-------3-------1-------3-------3-------3-------6--|

 Gm	Gm	Gm	Gm
-3------3-------3-------3--|
-3------3-------3-------3--|
-3------3-------3-------3--|
-5------5-------5-------5--|
-5------5-------5-------5--|
-3------3-------3-------3--|

**BASS & DRUMS**

 Gm	Gm	Gm	Gm	G
-3------3-------3-------3--|
-3------3-------3-------3--|
-3------3-------3-------3--|
-5------5-------5-------5--|
-5------5-------5-------5--|
-3------3-------3-------3--|

**BASS & DRUMS**

 Gm	Gm	Gm	Gm
-3------3-------3-------3--|
-3------3-------3-------3--|
-3------3-------3-------3--|
-5------5-------5-------5--|
-5------5-------5-------5--|
-3------3-------3-------3--|

**BASS & DRUMS**

 Gm	Gm	Gm	Gm
-3------3-------3-------3--|
-3------3-------3-------3--|
-3------3-------3-------3--|
-5------5-------5-------5--|
-5------5-------5-------5--|
-3------3-------3-------3--|

**VOCALS**

-------------------------|
-------------------------|
-------------------------|	x2
-5---6---7---8---9---10--|
-5---6---7---8---9---10--|
-3---4---5---6---7---8---|

 G5	G5	G5	F
---------------------------|
---------------------------|
---------------------------|	x1
-5------5-------5-------3--|
-5------5-------5-------3--|
-3------3-------3-------1--|

 Gm	Gm	Gm	Gm
-3------3-------3-------3--|
-3------3-------3-------3--|
-3------3-------3-------3--|
-5------5-------5-------5--|
-5------5-------5-------5--|
-3------3-------3-------3--|

-------------------------|
-------------------------|
-------------------------|	x2
-5---6---7---8---9---10--|
-5---6---7---8---9---10--|
-3---4---5---6---7---8---|

---3----------3------------3----------3------------3----------3----------3---------------3--|
-----3-2-1------3-2-1--------3-2-1------3-2-1--------3-2-1--------2-1--------2-1---------3--|
-3----------3---------3--3----------3---------3--3----------3---3------3---3------3s1s3--3--|	x1
-----------------------------------------------------------------------------------------5--|
-----------------------------------------------------------------------------------------5--|
-----------------------------------------------------------------------------------------3--|


Dispatch/One Fell Swoop
Four-Day Trials
Headlights
Tabbed by Owen Sakovics
www.tabsinonefellswoop.com

						 G
-------------------------------------3-------------------------------------------3--|
-x--------0h1---------------1----0h1---1p0------1h3-1-0--------0h1---------------3--|
-x--0-----0---2-----------0---0------------0----2---2----0-----0-----------------0--|	x2
-x------2-----2-------0h2--------------------------------0---2-----0-0-0-0h2p0---0--|
-x----0---------0h2h3-------------------------0------------0-------0-2-3---------2--|
-------------------------------------------------------------------------------3-3--|

										G
----------------------------------3---------------------------------------------3--|
-------0h1---------------1----0h1---1p0------1h3-1-0---------0h1----------------3--|
-0-----0---2-----------0---0------------0----2---2----0------0------------------0--|	x1
-----2-----2-------0h2--------------------------------0----2-----0-0-0-0h2p0----0--|
---0---------0h2h3-------------------------0-------------0-------0-2-3----------2--|
-----------------------------------------------------------------------------3--3--|

										G
----------------------------------3---------------------------------------------3--|
-------0h1---------------1----0h1---1p0-------------------0h1-------------1-----3--|
-0-----0---2-----------0---0------------0--0-0-0-0-0------0-------------0---0---0--|	x1
-----2-----2-------0h2---------------------0-0-0-0-0----2-----------0h2---------0--|
---0---------0h2h3------------------------------------0-------0h2h3-------------2--|
------------------------------------------------------------------------------3-3--|

 Am	Am	C	G
-0------0-------0-------3--|
-1------1-------1-------3--|
-2------2-------0-------0--|	x4
-2------2-------2-------0--|
-0------0-------3-------2--|
------------------------3--|

 Am	F	G	C	C
-0------1-------3-------0-------0--|
-1------1-------3-------1-------1--|
-2------2-------0-------0-------0--|	x1
-2------3-------0-------2-------2--|
-0------3-------2-------3-------3--|
--------1-------3------------------|

 C	G	F	Am	G	Dm
-0------3-------1-------0-------3-------1--|
-1------3-------1-------1-------3-------3--|
-0------0-------2-------2-------0-------2--|	x1
-2------0-------3-------2-------0-------0--|
-3------2-------3-------0-------2----------|
--------3-------1---------------3----------|

------------------------------------|
------------------------------------|
---------5---5-7b8r7p5---5----------|	x1
-----5h7---7-----------7---7-5-5h7--|
-5h7--------------------------------|
------------------------------------|

									       G
----------------------------------3--------------------------------------------3--|
-------0h1---------------1----0h1---1p0------1h3-1-0--------0h1----------------3--|
-0-----0---2-----------0---0------------0----2---2----0-----0------------------0--|	x1
-----2-----2-------0h2--------------------------------0---2-----0-0-0-0h2p0----0--|
---0---------0h2h3-------------------------0------------0-------0-2-3----------2--|
----------------------------------------------------------------------------3--3--|

										 G
----------------------------------3----------------------------------------------3--|
-------0h1---------------1----0h1---1p0-------------------0h1-------------1------3--|
-0-----0---2-----------0---0------------0--0-0-0-0-0------0-------------0---0----0--|	x1
-----2-----2-------0h2---------------------0-0-0-0-0----2-----------0h2----------0--|
---0---------0h2h3------------------------------------0-------0h2h3--------------2--|
------------------------------------------------------------------------------3--3--|

 Am	Am	C	G
-0------0-------0-------3--|
-1------1-------1-------3--|
-2------2-------0-------0--|	x4
-2------2-------2-------0--|
-0------0-------3-------2--|
------------------------3--|

 Am	F	G	C	C
-0------1-------3-------0-------0--|
-1------1-------3-------1-------1--|
-2------2-------0-------0-------0--|	x1
-2------3-------0-------2-------2--|
-0------3-------2-------3-------3--|
--------1-------3------------------|

 C	G	F	Am	Am	G	Dm	Am
-0------3-------1-------0-------0-------3-------1-------0--|
-1------3-------1-------1-------1-------3-------3-------1--|
-0------0-------2-------2-------2-------0-------2-------2--|	x1
-2------0-------3-------2-------2-------0-------0-------2--|
-3------2-------3-------0-------0-------2---------------0--|
--------3-------1-----------------------3------------------|

 F	C	Em	G	G
-1------0-------0-------3-------3--|
-1------1-------0-------3-------3--|
-2------0-------0-------0-------0--|	x1
-3------2-------2-------0-------0--|
-3------3-------2-------2-------2--|
-1--------------0-------3-------3--|

 C	C	G	F	Am	Am
-0------0-------3-------1-------0-------0--|
-1------1-------3-------1-------1-------1--|
-0------0-------0-------2-------2-------2--|	x1
-2------2-------0-------3-------2-------2--|
-3------3-------2-------3-------0-------0--|
----------------3-------1------------------|

 C	G	Am	Am
-0------3-------0-------0--|
-1------3-------1-------1--|
-0------0-------2-------2--|	x6
-2------0-------2-------2--|
-3------2-------0-------0--|
--------3------------------|

--------------------------------------------------------------------|
---1-----1-----1---1-----1-----1---1-----1-----1-----1-----1-----1--|
-----2-----2---------0-----0---------2-----2-----------0-----0------|	x2
-3-----3-----3---2-----2-----2---0-----0-----0---0h2------2-----2---|
--------------------------------------------------------------------|
--------------------------------------------------------------------|

------------------------------------------------------------------|
---1-----1-----1---1-----1-----1---1-----1-----1---1-----1-----1--|
-----2-----2---------0-----0---------2-----2---------0-----0------|	x2
-3-----3-----3---2-----2-----2---0-----0-----0---------2-----2----|
-------------------------------------------------3----------------|
------------------------------------------------------------------|

-----------------|
-------1----1----|
---0-----0----0--|	x6
-2---2-----------|
-----------------|
-----------------|


Dispatch/One Fell Swoop
Four-Day Trials (Remastered)
Fats
Tabbed by Owen Sakovics
www.tabsinonefellswoop.com

 D#m
-6-6-6-6-6-6-6-6-6-6-6-6-6-6-6-6--6-6-6-------6-6-6-6--6--|
-7-7-7-6-7-7-6-7-7-7-7-7-7-6-6-6--7-7-7--6-6--7-7-7-7--7--|
-8-8-8-6-8-8-6-8-8-8-8-8-8-6-6-6--8-8-8--6-6--8-8-8-8--8--|	x1
-8-8-8---8-8---8-8-8-8-8-8--------8-8-8--6-6--8-8-8-8--8--|
-6-6-6---6-6---6-6-6-6-6-6--------6-6-6-------6-6-6-6--6--|
----------------------------------------------------------|

-4-4-4-4-4-4-4-4-6-6-6-6-6-6-6-6--|
-6-6-6-6-6-6-6-6-7-7-7-7-7-7-7-7--|
-6-6-6-6-6-6-6-6-8-8-8-8-8-8-8-8--|	x1
-6-6-6-6-6-6-6-6-8-8-8-8-8-8-8-8--|
-4-4-4-4-4-4-4-4-6-6-6-6-6-6-6-6--|
----------------------------------|

 F#    C#    D#m   C#
-2--2--4--4--6--6--4--4--|
-2--2--6--6--7--7--6--6--|
-3--3--6--6--8--8--6--6--|	x4
-4--4--6--6--8--8--6--6--|
-4--4--4--4--6--6--4--4--|
-2--2--------------------|

-------------------------------|
-------------------------------|
-------------------------------|	x1
-------------------------------|
-8-8-9-8-8-9-8-9-11-9-8-6-4-3--|
-6-6-7-6-6-7-6-7-9--7-6-4-2-1--|

 D#m
-6-6-6-6-9-6--6-6-6-6--6-6-9-9-9--6-6--6-6--6--6-6-6--|
-7-7-7-7-7-7--7-7-6-7--7-7-7-7-7--7-7--7-7--7--7-7-7--|
-8-8-8-8-6-8--8-8-6-8--8-8-6-6-6--8-8--8-8--8--8-8-8--|	x1
-8-8-8-8-8-8--8-8---8--8-8-8-8-8--8-8--8-8--8--8-8-8--|
-6-6-6-6-6-6--6-6---6--6-6-6-6-6--6-6--6-6--6--6-6-6--|
------------------------------------------------------|

-4-4-4-4-4-4-4-4-6-6-6-6-6-6-6-6--|
-6-6-6-6-6-6-6-6-7-7-7-7-7-7-7-7--|
-6-6-6-6-6-6-6-6-8-8-8-8-8-8-8-8--|	x1
-6-6-6-6-6-6-6-6-8-8-8-8-8-8-8-8--|
-4-4-4-4-4-4-4-4-6-6-6-6-6-6-6-6--|
----------------------------------|

 F#    F# C#m   C#    C#
-2--2--2--4--x--4--x--4--|
-2--2--2--6--x--6--x--6--|
-3--3--3--6--x--6--x--6--|	x1
-4--4--4--6--x--6--x--6--|
-4--4--4--4-----4-----4--|
-2--2--2-----------------|

 F#    C#    D#m   C#
-2--2--4--4--6--6--4--4--|
-2--2--6--6--7--7--6--6--|
-3--3--6--6--8--8--6--6--|	x3
-4--4--6--6--8--8--6--6--|
-4--4--4--4--6--6--4--4--|
-2--2--------------------|

-------------------------------|
-------------------------------|
-------------------------------|	x1
-------------------------------|
-8-8-9-8-8-9-8-9-11-9-8-6-4-3--|
-6-6-7-6-6-7-6-7-9--7-6-4-2-1--|

 D#m		    C#
-6--6--6-6-6-6-6-6--4-4-4-4-4-4-4-4-4-4-4-4--|
-7--7--7-7-7-7-7-7--6-6-6-6-6-6-6-6-6-6-6-6--|
-8--8--8-8-8-8-8-8--6-6-6-6-6-6-6-6-6-6-6-6--|	x1
-8--8--8-8-8-8-8-8--6-6-6-6-6-6-6-6-6-6-6-6--|
-6--6--6-6-6-6-6-6--4-4-4-4-4-4-4-4-4-4-4-4--|
---------------------------------------------|

 D#m	            C#
-6--6--6------------4-4-4-4-4-4-4-4-4-4-4-4--|
-7--7--7------------6-6-6-6-6-6-6-6-6-6-6-6--|
-8--8--8------------6-6-6-6-6-6-6-6-6-6-6-6--|	x1
-8--8--8------------6-6-6-6-6-6-6-6-6-6-6-6--|
-6--6--6------------4-4-4-4-4-4-4-4-4-4-4-4--|
---------------------------------------------|

 D#m		    C#
-6--6--6------------4--4-4--4--4-4--4-4-4--|
-7--7--7------------6--6-6--6--6-6--6-6-6--|
-8--8--8------------6--6-6--6--6-6--6-6-6--|	x1
-8--8--8------------6--6-6--6--6-6--6-6-6--|
-6--6--6------------4--4-4--4--4-4--4-4-4--|
-------------------------------------------|

 D#m		    C#
-6------------------4-4-4-4-4-4-4-4-4-4-4-4--|
-7------------------6-6-6-6-6-6-6-6-6-6-6-6--|
-8------------------6-6-6-6-6-6-6-6-6-6-6-6--|	x1
-8------------------6-6-6-6-6-6-6-6-6-6-6-6--|
-6------------------4-4-4-4-4-4-4-4-4-4-4-4--|
---------------------------------------------|

 B	F#	C#	D#m	B	F	C#	C#
-2------2-------4-------6-6-6---2-------2-------4-------4--|
-4------2-------6-------7-7-7---4-------2-------6-------6--|
-4------3-------6-------8-8-8---4-------3-------6-------6--|	x1
-4------4-------6-------8-8-8---4-------4-------6-------6--|
-2------4-------4-------6-8-6---2-------4-------4-------4--|
--------2-------------------------------2------------------|

 B	F#	C#	D#m	B	F	C#	C#	C#	C#	C#	C#	C#
-2------2-------4-------6-6-6---2-------2-------4-------4-------4-------4-------4-------4-------4--|
-4------2-------6-------7-7-7---4-------2-------6-------6-------6-------6-------6-------6-------6--|
-4------3-------6-------8-8-8---4-------3-------6-------6-------6-------6-------6-------6-------6--|	x1
-4------4-------6-------8-8-8---4-------4-------6-------6-------6-------6-------6-------6-------6--|
-2------4-------4-------6-8-6---2-------4-------4-------4-------4-------4-------4-------4-------4--|
--------2-------------------------------2----------------------------------------------------------|

 D#m
-6-6-6-6-6-6-6-6-6-6-6-6-6-6-6-6-6-6-6--6-7-8--9--10-11-12-13--|
-7-7-7-7-6-6-6-7-7-7-7-7-7-7-7-7-7-7-7--7-8-9--10-11-12-13-14--|
-8-8-8-8-6-6-6-8-8-8-8-8-8-8-8-8-8-8-8--8-9-10-11-12-13-14-15--|
-8-8-8-8-------8-8-8-8-8-8-8-8-8-8-8-8--8-9-10-11-12-13-14-15--|
-6-6-6-6-------6-6-6-6-6-6-6-6-6-6-6-6--6-7-8--9--10-11-12-13--|
---------------------------------------------------------------|

 F#    C#    D#m   C#
-2--2--4--4--6--6--4--4--|
-2--2--6--6--7--7--6--6--|
-3--3--6--6--8--8--6--6--|	x4
-4--4--6--6--8--8--6--6--|
-4--4--4--4--6--6--4--4--|
-2--2--------------------|

----------------------------------------------------------------------------------------------------------------|
----------------------------------------------------------------------------------------------------------------|
----------------------------------------------------------------------------------------------------------------|	x1
----------------------------------------------------------------------------------------------------------------|
----2-4--4-6--4-6-4-2------2-4--4-6-s18s-4-6-4-2------2-4-s18s-4-6--4-6-4-2-----s10s-2-4--4-6-s18s-4-6-4-2------|
-2--------------------4-2------------------------4-2------------------------4-2----------------------------4-2--|

 D#m
-6-6-6-6-6-6-6-6-6-6-6-6-6-6-6-6--6-6-6-------6-6-6-6--6--|
-7-7-7-6-7-7-6-7-7-7-7-7-7-6-6-6--7-7-7--6-6--7-7-7-7--7--|
-8-8-8-6-8-8-6-8-8-8-8-8-8-6-6-6--8-8-8--6-6--8-8-8-8--8--|	x1
-8-8-8---8-8---8-8-8-8-8-8--------8-8-8--6-6--8-8-8-8--8--|
-6-6-6---6-6---6-6-6-6-6-6--------6-6-6-------6-6-6-6--6--|
----------------------------------------------------------|

 C#		 D#m
-4-4-4-4-4-4-4-4-6-6-6-6-6-6-6-6--|
-6-6-6-6-6-6-6-6-7-7-7-7-7-7-7-7--|
-6-6-6-6-6-6-6-6-8-8-8-8-8-8-8-8--|	x1
-6-6-6-6-6-6-6-6-8-8-8-8-8-8-8-8--|
-4-4-4-4-4-4-4-4-6-6-6-6-6-6-6-6--|
----------------------------------|

 F#    C#    D#m   C#
-2--2--4--4--6--6--4--4--|
-2--2--6--6--7--7--6--6--|
-3--3--6--6--8--8--6--6--|	x3
-4--4--6--6--8--8--6--6--|
-4--4--4--4--6--6--4--4--|
-2--2--------------------|

 F#    C#    D#m
-2--2--4--4--6--6--6--6--|
-2--2--6--6--7--7--7--7--|
-3--3--6--6--8--8--8--8--|	x4
-4--4--6--6--8--8--8--8--|
-4--4--4--4--6--6--6--6--|
-2--2--------------------|

-------------------------------|
-------------------------------|
-------------------------------|	x1
-------------------------------|
-8-8-9-8-8-9-8-9-11-9-8-6-4-3--|
-6-6-7-6-6-7-6-7-9--7-6-4-2-1--|


Dispatch/One Fell Swoop
Four-Day Trials (Remastered)
Whaddya Wanna Be
Tabbed by Owen Sakovics
www.tabsinonefellswoop.com

 Bm	F#m	A	E
-7------5-------5-------7--|
-7------7-------5-------9--|
-7------6-------6-------9--|	x2
-9------7-------7-------9--|
-9--------------7-------7--|
-7--------------5----------|

 F#m	F#m	A	G#m
-5------5-------5-------4--|
-7------7-------5-------4--|
-6------6-------6-------4--|	x4
-7------7-------7-------6--|
----------------7-------6--|
----------------5-------4--|

 F#m	A	G#m	A   G#m
-7------5-------4-------5---4--|
-6------5-------4-------5---4--|
-7------6-------4-------6---4--|	x3
-5------7-------6-------7---6--|
--------7-------6-------7---6--|
--------5-------4-------5---4--|

 F#m	A	G#m	G#m
-7------5-------4-------4--|
-6------5-------4-------4--|
-7------6-------4-------4--|	x1
-5------7-------6-------6--|
--------7-------6-------6--|
--------5-------4-------4--|

	Bm	F#m	F#m	E	Bm	    F#m	        F#m	    E
--------2-------2-------2-------0-------2-----------2-----------2-----------0--|
--------3-------2-------2-------0-------3-----------2-----------2-----------0--|
--------4-------2-------2-------1-------4-----------2-----------2-----------1--|	x1
--------4-------4-------4-------2-------4-----------4-----------4-----------2--|
--------2-------4-------4-------2-------2-----------4-----------4-----------2--|
-5-3-2----5-3-2-2-5-3-2-2-5-3-2-0-5-3-2---5-3-2-3-2-2-5-3-2-3-2-2-5-3-2-3-2-0--|

	Bm	F#m	F#m	E	Bm	    F#m	        F#m	    E	   E
--------2-------2-------2-------0-------2-----------2-----------2-----------0------0--|
--------3-------2-------2-------0-------3-----------2-----------2-----------0------0--|
--------4-------2-------2-------1-------4-----------2-----------2-----------1------1--|	x1
--------4-------4-------4-------2-------4-----------4-----------4-----------2------2--|
--------2-------4-------4-------2-------2-----------4-----------4-----------2------2--|
-5-3-2----5-3-2-2-5-3-2-2-5-3-2-0-5-3-2---5-3-2-3-2-2-5-3-2-3-2-2-5-3-2-3-2-0------0--|

	Bm	F#m	F#m	E	Bm	    F#m	        F#m	    E	   E
--------2-------2-------2-------0-------2-----------2-----------2-----------0------0--|
--------3-------2-------2-------0-------3-----------2-----------2-----------0------0--|
--------4-------2-------2-------1-------4-----------2-----------2-----------1------1--|	x1
--------4-------4-------4-------2-------4-----------4-----------4-----------2------2--|
--------2-------4-------4-------2-------2-----------4-----------4-----------2------2--|
-5-3-2----5-3-2-2-5-3-2-2-5-3-2-0-5-3-2---5-3-2-3-2-2-5-3-2-3-2-2-5-3-2-3-2-0------0--|

 F#m	F#m	A	G#m
-5------5-------5-------4--|
-7------7-------5-------4--|
-6------6-------6-------4--|	x4
-7------7-------7-------6--|
----------------7-------6--|
----------------5-------4--|

 F#m	A	G#m	A   G#m
-7------5-------4-------5---4--|
-6------5-------4-------5---4--|
-7------6-------4-------6---4--|	x3
-5------7-------6-------7---6--|
--------7-------6-------7---6--|
--------5-------4-------5---4--|

 F#m	A	G#m	G#m
-7------5-------4-------4--|
-6------5-------4-------4--|
-7------6-------4-------4--|	x1
-5------7-------6-------6--|
--------7-------6-------6--|
--------5-------4-------4--|

	Bm	F#m	F#m	E	Bm	    F#m	        F#m	    E
--------2-------2-------2-------0-------2-----------2-----------2-----------0--|
--------3-------2-------2-------0-------3-----------2-----------2-----------0--|
--------4-------2-------2-------1-------4-----------2-----------2-----------1--|	x1
--------4-------4-------4-------2-------4-----------4-----------4-----------2--|
--------2-------4-------4-------2-------2-----------4-----------4-----------2--|
-5-3-2----5-3-2-2-5-3-2-2-5-3-2-0-5-3-2---5-3-2-3-2-2-5-3-2-3-2-2-5-3-2-3-2-0--|

	Bm	F#m	F#m	E	Bm	    F#m	        F#m
--------2-------2-------2-------0-------2-----------2-----------2------------|
--------3-------2-------2-------0-------3-----------2-----------2------------|
--------4-------2-------2-------1-------4-----------2-----------2------------|	x1
--------4-------4-------4-------2-------4-----------4-----------4------------|
--------2-------4-------4-------2-------2-----------4-----------4------------|
-5-3-2----5-3-2-2-5-3-2-2-5-3-2-0-5-3-2---5-3-2-3-2-2-5-3-2-3-2-2-5-3-2-3-2--|

 E   F#5 A5  C#5 F#5 G#5
-0----------------------|
-0----------------------|
-1----------------------|	x3
-2---4---7---6----------|
-2---4---7---4---4---6--|
-0---2---5-------2---4--|

 E   F#5 A5  C#5 F#5 G#5 C#5 F#5 G#5 C#5 F#5 G#5 A5
-0--------------------------------------------------|
-0--------------------------------------------------|
-1--------------------------------------------------|
-2---4---7---6-----------6-----------6--------------|
-2---4---7---4---4---6---4---4---6---4---4---6---7--|
-0---2---5-------2---4-------2---4-------2---4---5--|

 C#5 F#5 G#5 C#5 F#5 G#5 C#5 F#5 G#5 A5  G#5 F#5 C#5 F#5 G#5 C#5 F#5 G#5 C#5 F#5 G#5 A5
----------------------------------------------------------------------------------------|
----------------------------------------------------------------------------------------|
----------------------------------------------------------------------------------------|	x1
-6-----------6-----------6-----------------------6-----------6-----------6--------------|
-4---4---6---4---4---6---4---4---6---7---6---4---4---4---6---4---4---6---4---4---6---7--|
-----2---4-------2---4-------2---4---5---4---2-------2---4-------2---4-------2---4---5--|

 C#5 F#5 G#5 C#5 F#5 G#5 C#5 F#5 G#5 A5  G#5 F#5
-----------------------------------------------------------------------|
-----------------------------------------------------------------------|
-----------------------------------------------------------------------|	x1
-6-----------6-----------6---------------------------------------------|
-4---4---6---4---4---6---4---4---6---7---6---4--------------s4---------|
-----2---4-------2---4-------2---4---5---4---2---4---2---0------7h8h9--|

			 			    B
-------------------------------------------------------|
-------------------------------------------------------|
-------6--6---9--------6--9-9-9-6--------6--6---6------|	x1
------------6---------------------------------6--------|
----------------------------------------------------9--|
-7h8h9-----------7h8h9-------------7h8h9------------7--|

**BASS**

			 			    B
-------------------------------------------------------|
-------------------------------------------------------|
-------6--6---9--------6--9-9-9-6--------6--6---6------|	x2
------------6---------------------------------6--------|
----------------------------------------------------9--|
-7h8h9-----------7h8h9-------------7h8h9------------7--|

			 			 C#m
----------x-x-x-x-x-x-x-x-x-x-x-x-x-x-x-x-x-x-x--4--|
----------x-x-x-x-x-x-x-x-x-x-x-x-x-x-x-x-x-x-x--5--|
-------6--x-x-x-x-x-x-x-x-x-x-x-x-x-x-x-x-x-x-x--6--|	x1
----------x-x-x-x-x-x-x-x-x-x-x-x-x-x-x-x-x-x-x--6--|
----------x-x-x-x-x-x-x-x-x-x-x-x-x-x-x-x-x-x-x--4--|
-7h8h9----x-x-x-x-x-x-x-x-x-x-x-x-x-x-x-x-x-x-x-----|

 E   C#m E   B 	 E   C#m E   B 	 E   C#m E   B 	 C#m
-4---4---4---2---4---4---4---2---4---4---4---2---4--|
-5---5---5---4---5---5---5---4---5---5---5---4---5--|
-4---6---4---4---4---6---4---4---4---6---4---4---6--|	x2
-6---6---6---4---6---6---6---4---6---6---6---4---6--|
-----4-------2-------4-------2-------4-------2---4--|
----------------------------------------------------|

			 			    B
-------------------------------------------------------|
-------------------------------------------------------|
-------6--6---9--------6--9-9-9-6--------6--6---6------|	x4
------------6---------------------------------6--------|
----------------------------------------------------9--|
-7h8h9-----------7h8h9-------------7h8h9------------7--|

 C#m	C#m	C#m	B
-4------4-------4-------2--|
-5------5-------5-------4--|
-6------6-------6-------4--|	x2
-6------6-------6-------4--|
-4------4-------4-------2--|
---------------------------|

**DRUMS & VOCALS**

 E   C#m E   B 	 E   C#m E   B 	 E   C#m E   B 	 C#m
-4---4---4---2---4---4---4---2---4---4---4---2---4--|
-5---5---5---4---5---5---5---4---5---5---5---4---5--|
-4---6---4---4---4---6---4---4---4---6---4---4---6--|	x2
-6---6---6---4---6---6---6---4---6---6---6---4---6--|
-----4-------2-------4-------2-------4-------2---4--|
----------------------------------------------------|

 C#m	C#m	C#m	B
-4------4-------4-------7--|
-5------5-------5-------7--|
-6------6-------6-------8--|	x2
-6------6-------6-------9--|
-4------4-------4-------9--|
------------------------7--|

 C#m	C#m	C#m	C#m
-4------4-------4-------4--|
-5------5-------5-------5--|
-6------6-------6-------6--|	x2
-6------6-------6-------6--|
-4------4-------4-------4--|
---------------------------|

 E   C#m E   B 	 E   C#m E   B 	 E   C#m E   B 	 C#m
-4---4---4---2---4---4---4---2---4---4---4---2---4--|
-5---5---5---4---5---5---5---4---5---5---5---4---5--|
-4---6---4---4---4---6---4---4---4---6---4---4---6--|	x2
-6---6---6---4---6---6---6---4---6---6---6---4---6--|
-----4-------2-------4-------2-------4-------2---4--|
----------------------------------------------------|

			     B
--------------------------------|
--------------------------------|
--------------------------------|	x1
--------------------------------|
-----------------------------9--|
-7h9------7h8h9------7h8h9---7--|

			 			    B	   C#m
-----------------------------------------------------------4--|
-----------------------------------------------------------5--|
-------6--6---9--------6--9-9-9-6--------6--6---6----------6--|	x1
------------6---------------------------------6------------6--|
----------------------------------------------------9------4--|
-7h8h9-----------7h8h9-------------7h8h9------------7---------|

Dispatch/One Fell Swoop
Four-Day Trials (Remastered)
Dem Shoes
Tabbed by Owen Sakovics
www.tabsinonefellswoop.com

 Am	Am			Am	Am
-5------5-----------------------5-------5-5--|
-5------5-----------------------5-------5-5--|
-5------5-----------------------5-------5-5--|	x1
-7------7-----------------------7-------7-7--|
-7------7-----------------------7-------7-7--|
-5------5-----------------------5-------5-5--|

 Am	Am	Am	Am
-5------5-------5-------5--|
-5------5-------5-------5--|
-5------5-------5-------5--|	x1
-7------7-------7-------7--|
-7------7-------7-------7--|
-5------5-------5-------5--|

 Am    	C   Am  G   G#	Am	Am
-5------8---5---3---4---5-------5--|
-5------8---5---3---4---5-------5--|
-5------9---5---4---5---5-------5--|	x1
-7------10--7---5---6---7-------7--|
-7------10--7---5---6---7-------7--|
-5------8---5---3---4---5-------5--|

 Am	Am	Am	Am
-5------5-------5-------5--|
-5------5-------5-------5--|
-5------5-------5-------5--|	x2
-7------7-------7-------7--|
-7------7-------7-------7--|
-5------5-------5-------5--|

 Am   	Am  C   Am      Am
-5------5---8---5-------5--|
-5------5---8---5-------5--|
-5------5---9---5-------5--|	x1
-7------7---10--7-------7--|
-7------7---10--7-------7--|
-5------5---8---5-------5--|

---------------------------------------------------|
---------------------------------------------------|
-----5---------------5--------5---------------5----|	x1
-------7--5-5h7--------7--------7--5-5h7--------7--|
-5h7-------------5h7------5h7-------------5h7------|
---------------------------------------------------|

---------------------------------------------------|
---------------------------------------------------|
-----7---------------7--------5---------------5----|	x1
-------9--7-7h9--------9--------7--5-5h7--------7--|
-7h9-------------7h9------5h7-------------5h7------|
---------------------------------------------------|

 Am	Am			Am	Am
-5------5-----------------------5-------5-5--|
-5------5-----------------------5-------5-5--|
-5------5-----------------------5-------5-5--|	x1
-7------7-----------------------7-------7-7--|
-7------7-----------------------7-------7-7--|
-5------5-----------------------5-------5-5--|

 Bm	Bm	Bm	Bm
-7------7-------7-------7--|
-7------7-------7-------7--|
-7------7-------7-------7--|	x1
-9------9-------9-------9--|
-9------9-------9-------9--|
-7------7-------7-------7--|

 Bm	Bm  D	Bm   Bb	Bm
-7------7---10--7----6--7--|
-7------7---10--7----6--7--|
-7------7---11--7----7--7--|	x1
-9------9---12--9----8--9--|
-9------9---12--9----8--9--|
-7------7---10--7----6--7--|

 Bm	Bm	Bm	Bm
-7------7-------7-------7--|
-7------7-------7-------7--|
-7------7-------7-------7--|	x2
-9------9-------9-------9--|
-9------9-------9-------9--|
-7------7-------7-------7--|

 Bm	Bm  D	Bm	Bm
-7------7---10--7-------7--|
-7------7---10--7-------7--|
-7------7---11--7-------7--|	x1
-9------9---12--9-------9--|
-9------9---12--9-------9--|
-7------7---10--7-------7--|

---------------------------------------------------------------------------------------|
---------------------------------------------------------------------------------------|
-----7---------------7---------8------------------9-------------------10---------------|	x1
-------9--7-7h9--------9---------10--8-8h10---------11--9-9h11-----------12--10-10h12--|
-7h9-------------7h9------8h10---------------9h11---------------10h12------------------|
---------------------------------------------------------------------------------------|

-------------------------------------------------------------------|
-------------------------------------------------------------------|
-------11---------------------12-----------------------------------|	x1
----------13--11-11h13-----------14--12-12h14--12-12h14--12-12h14--|
-11h13------------------12h14--------------------------------------|
-------------------------------------------------------------------|

 Am     Am  	C   Am	Am  G   G#  Am
-5------5-------8---5---5---3---4---5--|
-5------5-------8---5---5---3---4---5--|
-5------5-------9---5---5---4---5---5--|	x1
-7------7-------10--7---7---5---6---7--|
-7------7-------10--7---7---5---6---7--|
-5------5-------8---5---5---3---4---5--|


Sorry about the mess ups on some of the lines
Добавлено: 05.07.2013
Другие материалы по этой песне:
  • Аккорды и текст

Страница создана 05.07.2013
http://primanota.ru/dispatch/four-day-tirals-chords.htm
Привет, Гость.
Предлагаем пройти революционный курс по гитаре.
Подарок от PrimaNota.Ru, забирай!