PrimaNota.ru - самый крупный в мире бесплатный архив песенных текстов, аккордов, табулатур и нот


Dispatch - 10ft 5ft Bang Em - таба, видео

Регистрация Запомнить меня
Войти через:  Facebook Google Twitter Vk Yandex Mail.ru

Dispatch - 10ft 5ft Bang Em - таба, видео

Печатать
Просмотров: 131
Уроки эстрадного вокала в Санкт-Петербурге
10ft 5ft Bang 'em
Who are we livin for


----------------------------------------------------------------------------|
----------------------------------------------------------------------------|
----------------------------------------------------------------------------|	x1
-5h7p5---------------------------3---------------------------------------5--|
-------8-7-5-7-8-7----5-5--0-3-5----0-3-0-5-5--0-3------0-3-0-5-5--0-3-5----|
-------------------5-------------------------------4-3----------------------|

-------------------------------------------------------------------------------------------------|
-------------------------------------------------------------------------------------------------|
-------------------------------------------------------------------------------------------------|	x1
-5h7p5---------------------------3---------------------------------------5--5h7p5----------------|
-------8-7-5-7-8-7----5-5--0-3-5----0-3-0-5-5--0-3------0-3-0-5-5--0-3-5----------8-7-5-7-8-7----|
-------------------5-------------------------------4-3----------------------------------------5--|

 Dm	Dm	Dm	C
-10-----10--13--10------8---|
-10-----10--10--10------8---|
-10-----10--10--10------9---|	x2
-10-----12--10--12------10--|
-10-----12--12--12------10--|
-10-----10--10--10------8---|

**BASS DRUMS & KEYS**

------------------------------------------------------------------------------|
------------------------------------------------------------------------------|
------------------------------------------------------------------------------|	x1
------------5---------------------------------------7--7h9p7------------------|
-7-7----5-7------5---7-7----5--------5---7-7----5-7----------10-9-7-9-10-9----|
------7--------7---7------7---6-5--7---7------7----------------------------7--|
------------------------------------------------------------------------------|

 Dm	F	G	D	Dm	F	C7  	D	F
-5------5-------3-------5-------5-------5-------8---10--10------13--|
-6------6-------3-------7-------6-------6-------8---8---10------13--|
-7------5-------4-------7-------7-------5-------9---9---11------14--|	x1
-7------7-------5-------7-------7-------7-------8---8---12------15--|
-5------8-------5-------5-------5-------8-------10--10--12----------|
----------------3-------------------------------8---8---10----------|


---------------------------------------------------------------------------------------|
---------------------------------------------------------------------------------------|
---------------------------------------------------------------------------------------|	x1
------------------3---------------------------------------5--5h7p5---------------------|
-0-3-0-5-5--0-3-5----0-3-0-5-5--0-3------0-3-0-5-5--0-3-5----------8-7-5-7-8-7----5-5--|
------------------------------------4-3----------------------------------------5-------|
Добавлено: 29.09.2013
Другие материалы по этой песне:
  • Аккорды и текст

Страница создана 29.09.2013
http://primanota.ru/dispatch/10ft-5ft-bang-em-chords.htm
Привет, Гость.
Предлагаем пройти революционный курс по гитаре.
Подарок от PrimaNota.Ru, забирай!