PrimaNota.ru - самый крупный в мире бесплатный архив песенных текстов, аккордов, табулатур и нот


Disney - Waiting For The Lights - таба, видео

Регистрация Запомнить меня
Войти через:  Facebook Google Twitter Vk Yandex Mail.ru

Disney - Waiting For The Lights - таба, видео

Печатать
Просмотров: 127
Tabbed by: Eric Morales
Email: CurledArt@hotmail.com
Youtube User: CurledArt
Youtube Video: www.youtube.com/watch?v=-fs8AueiFUU

I <3 Disney

Tuning: Standard

Time Signature = 3/4

e|--4----------------0-------------------------------------------------------|
B|----------0------------0-----------7----------------------4h5-4------------|
G|------1-------------------2-------8------------8------------------4--------|
D|--2-----------------------------------------9-----------------4------------|
A|-------------------4---------------------6-------------2-------------------|
E|---------------------------------------------------------------------------|

e|-------------------------------0-------------------------------------------|
B|--2-----------------2-----0--------4-----2-------0-------------------------|
G|-------2---2---4-----------------------------------2----4------------------|
D|------4------------------------2-------------2----------4------------------|
A|-----4-----------------------------------0--------------2------------------|
E|--2-----------------------4------------------------------------------------|


Time Signature = 4/4

e|--------------------------2------------------------------------------------|
B|------0----------------------------------------2---------------------------|
G|----1----------2-------4----4----4------------2------------4---------------|
D|--2----------2-------1--------1------------4------------2------------------|
A|-----------4---------------------------------------------------------------|
E|----------------------------------------2-----------4----------------------|

e|---------------------------------------------------------------------------|
B|-----------5------5------------------0-------------------------------------|
G|----------6-------6------------------------------8-------9-----------------|
D|------6-----------4--------------7---------------9-------6-----------------|
A|--4---------------------------7---------------9----------7-----------------|
E|------------------6--------5--------------7--------------0-----------------|


Time Signature = 3/4

e|---------------------------------------------------------------------------|
B|-----9---10---9\---5----3---2---3---5\-------------------------------------|
G|---9-------------------------------------2---------------------------------|
D|---------------------------------------------------------------------------|
A|---------------------------------------------------------------------------|
E|---------------------------------------------------------------------------|

e|---------------------------------------------------------------------------|
B|------9---10---9\---5-------5/---7-----5-----------------------------------|
G|---9--------------------6--------------------------------------------------|
D|---------------------------------------------------------------------------|
A|---------------------------------------------------------------------------|
E|---------------------------------------------------------------------------|


************************************

| /   slide up
| \   slide down
| h   hammer-on
| p   pull-off
| ~   vibrato
| +   harmonic
| x   Mute note
| b   Bend
| pb  Pre-bend
| br  Bend release
| pbr Pre-bend release
| brb Bend release bend

************************************
Добавлено: 19.07.2013
Другие материалы по этой песне:
  • Аккорды и текст

Страница создана 19.07.2013
http://primanota.ru/disney/waiting-for-the-lights-chords.htm
Привет, Гость.
Предлагаем пройти революционный курс по гитаре.
Подарок от PrimaNota.Ru, забирай!