PrimaNota.ru - самый крупный в мире бесплатный архив песенных текстов, аккордов, табулатур и нот


Disney - Good Luck Charlie Theme - таба, видео

Регистрация Запомнить меня
Войти через:  Facebook Google Twitter Vk Yandex Mail.ru

Disney - Good Luck Charlie Theme - таба, видео

Печатать
Просмотров: 127
Уроки эстрадного вокала в Санкт-Петербурге
-------------------------------------------------------------------------------
                             Good Luck Charlie Theme Song
----------------------------------------------------------------------------

Tuning:standard (EADGBe)


REPAT TWICE⬇️
e|--7-7-5-5-8-8-8-7-5-7-7-7-7-5-7-5-3---------------------------------
B|--------------------------------------------------------------------
G|--------------------------------------------------------------------
D|--------------------------------------------------------------------
A|-------------------------------------------------------------------
E|--------------------------------------------------------------------

-----------------------------------------------------------------------

e|--7-5-3-5-3-5------7-5-3-5-7-8------7-5-3-5-7-5-3-5-7-5-3-5-7-5-3---
B|------------------------------------------------------------------3-
G|--------------------------------------------------------------------
D|--------------------------------------------------------------------
A|--------------------------------------------------------------------
E|--------------------------------------------------------------------

e|-7-5-3-5-7-5-3-5-7-5-3-5-7-8-------7-5-3-2-3-5-3-10-7-5-3-2-3-5-----
B|--------------------------------------------------------------------
G|--------------------------------------------------------------------
D|--------------------------------------------------------------------
A|--------------------------------------------------------------------
E|--------------------------------------------------------------------

e|-0-3-0-3-5-7-5-3-2-3-------7-5-3-5-3--------------------------------
B|--------------------------------------------------------------------
G|--------------------------------------------------------------------
D|--------------------------------------------------------------------
A|--------------------------------------------------------------------
E|--------------------------------------------------------------------

************************************
Добавлено: 04.04.2016
Другие материалы по этой песне:
  • Аккорды и текст

Страница создана 04.04.2016
http://primanota.ru/disney/good-luck-charlie-theme-chords.htm
Привет, Гость.
Предлагаем пройти революционный курс по гитаре.
Подарок от PrimaNota.Ru, забирай!