PrimaNota.ru - самый крупный в мире бесплатный архив песенных текстов, аккордов, табулатур и нот


Disney Pinokio - Milion Gwiazd Na Niebie Lśni - аккорды и текст, видео

Регистрация Запомнить меня
Войти через:  Facebook Google Twitter Vk Yandex Mail.ru

Disney Pinokio - Milion Gwiazd Na Niebie Lśni - аккорды и текст, видео

Печатать
Просмотров: 76
Milion Gwiazd Na Niebie Lśni
Disney Pinokio
Akordy:
C: x32010
A7: x02020
Dm7+: xx0221
Dm7: xx0565 lub xx0211
G7: xx0001
Cdim: xx4545
C9: x320030
D#dim: xx1212
G: xx0787
G6: xx5700 lub xx0000

C      A7        Dm7+   Dm7   G7             Cdim C
Milion gwiazd na niebie lśni, każda gwiazdka mówi Ci
C9     D#dim   Dm7  G6       Dm7 G  C      G7
Że się spełnić może dziś, co tyylko chcesz
C     A7    Dm7+  Dm7  G7             Cdim C
Jeśli tylko serce twe, nie jest smutne ani złe
C9    D#dim   Dm7    G6       Dm7 G C
Jeśli dziś zaśpiewać chce, radoosną pieśń
 
Fm     C
Milion gwiazd
Dm    G6 Cdim  C
Ty także swoją masz
Am              D7
Ach, spójrz, to przecież są
    Fm   G7
Marzenia nasze

solo:

---3-1-0-----5|---7-5-3-----8|-10-8-7-5-3-1-0|-5--3-|
---------2-3--|---------7-8--|---------------|------|
-0------------|-4------------|---------------|--4---|
--------------|--------------|---------------|------|
--------------|--------------|---------------|------|
--------------|--------------|---------------|------|

---3-1-0-----5|---7-5-3-----8|-10-8-7-5-3-1-0|-5-7-8
---------2-3--|---------7-8--|---------------|------
-0------------|-4------------|---------------|------
--------------|--------------|---------------|------
--------------|--------------|---------------|------
--------------|--------------|---------------|------

C      A7        Dm7+   Dm7   G7          Cdim C
Milion gwiazd na niebie lśni, aż do nieba lecą sny
C9      D#dim     Dm7    G6        Dm7 G  C
Który z nich jest dobrym snem, ten spełni się 

Добавлено: 18.06.2016
Другие материалы по этой песне:
  • Аккорды и текст

Страница создана 18.06.2016
http://primanota.ru/disney-pinokio/milion-gwiazd-na-niebie-lsni-chords.htm
Привет, Гость.
Предлагаем пройти революционный курс по гитаре.
Подарок от PrimaNota.Ru, забирай!