PrimaNota.ru - самый крупный в мире бесплатный архив песенных текстов, аккордов, табулатур и нот


Dismemberment Plan - The Face of the Earth - текст песни, таба, видео

Регистрация Запомнить меня
Войти через:  Facebook Google Twitter Vk Yandex Mail.ru

Dismemberment Plan - The Face of the Earth - текст песни, таба, видео

Печатать
Просмотров: 81


0:00

Riff 1:

Keyboard (acoustic guitar sound)

            *            *
e-----------------------------------|
b-------8---8----------8-8----------|
g-----5-----5------------5----------|
d---7-------7--------7---7----------|
a-----------------------------------|
e-----------------------------------|

* rake

0:06

Riff 2:

Guitar 1 (dirty electric) w/ echo


e------------------------------------------------------------|
b---x-x--------x-x--------x-x-------------------*12----------|
g---x-x--------x-x--------x-x---------------*12-------0------|
d---x-x--------x-x--------x-x------------*12----------0------|
a------------------------------------*12--------------0------|
e-----------------------------------------------------0------|

(continued)
e------------------------------------------------------------|
b---x-x--------x-x--------x-x---------x-x--------x-x---------|
g---x-x--------x-x--------x-x---------x-x--------x-x---------|
d---x-x--------x-x--------x-x---------x-x--------x-x---------|
a------------------------------------------------------------|
e------------------------------------------------------------|

(continued)
e------------------------------------------------------------|
b---x-x--------x-x--------x-x--------x-x--------x-x----------|
g---x-x--------x-x--------x-x--------x-x--------x-x----------|
d---x-x--------x-x--------x-x--------x-x--------x-x----------|
a------------------------------------------------------------|
e------------------------------------------------------------|

(continued)
e-------------------------|
b---x-x-------------------|
g---x-x-------------------|
d---x-x-------------------|
a-------------------------|
e-------------------------|

0:30

Riff 2:

Guitar 1

w/ strumming throughout

e---10----------------3-------------------|
b---10----------------1-------------------|
g---10----------------2-------------------|
d---8-----------------3-------------------| x3
a---8-------------------------------------|
e-----------------------------------------|

(continued)

e-------------------------------|
b---8----6------6--8----6-------|
g---8----7-----7---8----7-------|
d---8----8---8-----8----8-------|
a---6----8---------6----8-------|
e--------6--------------6-------|

0:56

Riff 3:

Guitar 1


e---10-----------------------------------------|
b---10-----------------------------------------|
g---12-----------------------------------------|
d-------0----------------0--0-0-0--0--0--0-----|
a----------------------------------------------|
e----------------------------------------------|

2:28

Riff 4:

Guitar 1 w/ echo

w/ strumming

e----------------------|
b---14-----------------|
g---12-----------------|
d---11-----------------| x2
a----------------------|
e----------------------|

For comments and questions e-mail me at cdunnetlrx@yahoo.com

Добавлено: 20.09.2013
Другие материалы по этой песне:
  • Аккорды и текст

Страница создана 04.06.2012
http://primanota.ru/dismemberment-plan/the-face-of-the-earth-chords.htm
Привет, Гость.
Предлагаем пройти революционный курс по гитаре.
Подарок от PrimaNota.Ru, забирай!