PrimaNota.ru - самый крупный в мире бесплатный архив песенных текстов, аккордов, табулатур и нот


Dismemberment Plan - The City - текст песни, таба, видео

Регистрация Запомнить меня
Войти через:  Facebook Google Twitter Vk Yandex Mail.ru

Dismemberment Plan - The City - текст песни, таба, видео

Печатать
Просмотров: 130
Уроки эстрадного вокала в Санкт-Петербурге
Intro:


Guitar 1:

---------------------------------------------|
---------------------------------------------|
--------4-------4-------4---------4----------|
----4-------4-------4-------4--4-----4-------|
---------------------------------------------|
---------------------------------------------|


Guitar 2:

-----------------------------------------------|
---4----4----4----4----4----4----4----4--------|
---4----4----4----4----4----4----4----4--------|
---2----2----2----2----2----2----2----2--------|
---4----4----4----4----4----4----4----4--------|
-----------------------------------------------|

-----------------------------------------------|
---4----4----4----4----4----4----4----5--------|
---4----4----4----4----4----4----4----4--------|
---2----2----2----2----2----2----2----2--------|
---4----4----4----4----4----4----4----4--------|
-----------------------------------------------|


Right before the verse comes in, Guitar 1 does this:


----------------------------------------------------------|
---------------------2-----2-----X----X----4--------------|
-----------------4------4--------X----X----4--------------|
---(4)--------4-------------------X----X----2-------------|
---------------------------------X----X----4--------------|
----------------------------------------------------------|


Verse:

("Now I notice the streetlamp's hum...")

-----------------------------------------------|
---4----4----4----4----4----4----4----5--------|
---4----4----4----4----4----4----4----4--------|
---2----2----2----2----2----2----2----2--------|
---4----4----4----4----4----4----4----4--------|
-----------------------------------------------|  X3


-----------------------------------------------|
---7----7----7----7----7----7----7----7--------|
---7----7----7----7----7----7----7----7--------|
---5----5----5----5----5----5----5----5--------|
---5----5----5----5----5----5----5----5--------|
-----------------------------------------------|  X1

Chorus:

(So I'm not unsympathetic...")
------------------------------------------------------|
---4------5-------4-------X-------5-------5-----------|
---4------4-------4-------4-------4-------6-----------|
---2------2-------2-------2-------4-------4-----------|
---4------0-------4-------2-------0-------5-----------|
------------------2-------2---------------------------|


Repeat Intro...

Verse 2:

("Sometimes I stand on my roof at night...")

There's no guitar here that I know of, but there is an effect fading in to what sounds
this chord several times, it could be a heavily effected guitar:

------------|
----4-------|
----4-------|
----2-------|
----4-------|
------------|

and then to this:

------------|
----7-------|
----7-------|
----5-------|
----5-------|
------------|


Repeat Chorus...

Repeat Intro...


Bridge/Chorus 2/Thing:

("Oh I never had just whatever it is...)

This part I'm not entirely sure but this sounds pretty good:


Guitar 1:


--------------------------------------------------------|
---12-12-12-12-12---12-12-12-12-12-12---9/10-9--6/7--5--|
---X--X--X--X--X----X--X--X--X--X--X----X/X--X--X/X--X--|
---9--9--9--9--9----9--9--9--9--9--9----6/7--6--3/4--2--|
--------------------------------------------------------|
--------------------------------------------------------|

--------------------------------------------------------|
---12-12-12-12-12---12-12-12-12-12-12---12-10-/14-/19---|
---X--X--X--X--X----X--X--X--X--X--X----X--X--/X--/X----|
---9--9--9--9--9----9--9--9--9--9--9----9--7--/11-/16---|
--------------------------------------------------------|
--------------------------------------------------------|


Guitar 2:


--------------------------------------------------------|
---4--4--4--4--4----4--4--4--4--4--4----4--4--2--5------|
---4--4--4--4--4----4--4--4--4--4--4----4--4--2--4------|
---2--2--2--2--2----2--2--2--2--2--2----2--2--0--4------|
---4--4--4--4--4----4--4--4--4--4--4----4--0--2---------|
--------------------------------------------------------|


--------------------------------------------------------|
---4--4--4--4--4----4--4--4--4--4--4----4--2--X--7------|
---4--4--4--4--4----4--4--4--4--4--4----4--2--7--7------|
---2--2--2--2--2----2--2--2--2--2--2----2--0--7--5------|
---4--4--4--4--4----4--4--4--4--4--4----0--2--5--5------|
--------------------------------------------------------|


("And all I ever say now is goodbye...")

Guitar 1:

-------------------------------------------------------|
---/21---21---21---21---21---21---21---21---21---21----|
---/X----X----X----X----X----X----X----X----X----X-----|
---/18---18---18---18---18---18---18---18---18---18----|
-------------------------------------------------------|
-------------------------------------------------------|

Guitar 2:

-----------------------------------------------|
---4----4----4----4----4----4----4----4--------|
---4----4----4----4----4----4----4----4--------|
---2----2----2----2----2----2----2----2--------|
---4----4----4----4----4----4----4----4--------|
-----------------------------------------------|


Outro:

Repeat Intro
Добавлено: 08.04.2012
Другие материалы по этой песне:
  • Аккорды и текст

Страница создана 12.03.2012
http://primanota.ru/dismemberment-plan/the-city-chords.htm
Привет, Гость.
Предлагаем пройти революционный курс по гитаре.
Подарок от PrimaNota.Ru, забирай!