PrimaNota.ru - самый крупный в мире бесплатный архив песенных текстов, аккордов, табулатур и нот


Dismemberment Plan - Ellen and Ben - текст песни, бас-таба, видео

Регистрация Запомнить меня
Войти через:  Facebook Google Twitter Vk Yandex Mail.ru

Dismemberment Plan - Ellen and Ben - текст песни, бас-таба, видео

Печатать
Просмотров: 44
Уроки эстрадного вокала в Санкт-Петербурге
(/) Slide Up  (\) Slide Down  (h) Hammer On  (p) Pull Off

work out the rhythm yourself it will be good for you

verse line 1:

G|--------------------------------------------------------------|
D|--7-----------7--7-----------7--7-----------7--7--------------|
A|-----7--5--7--------7--5--7--------7--5--7--------7--5--7--5--|
E|--------------------------------------------------------------|

verse line 2:

G|-------------------------------------------|
D|--7--7--7--7--7--7--7--7--5--7--7/9--7--5--|
A|-------------------------------------------|
E|-------------------------------------------|


MIDSECTION:

G|-----------------------------------------------------------------------------------------------------|
D|-----------------------------------------------------------------------------------------------------|
A|-----------9--------------11-----10--10----------------------------------------------2--2--2--2h4p2--|
E|--7--7--7-----7--9--9--9------9----------10--10--7--7--3--3--0--0--2--2--3--3--5--5------------------|


G|-----------------------------------------------------------6--------6--------8--------8--------|
D|--------------------------------------------------4--------------------------------------------|
A|-----------4-----------------------------2--2--2-----2--2-----4--4-----4--4-----6--6-----6--6--|
E|--5--5--5-----5--3--3--2--2--0--0--2--2--------------------------------------------------------|

G|-------------------------------------------------------|
D|--3--3h5p3--3---------------------------------5-----7--|
A|---------------------------------3--3------3-----5-----|
E|---------------1--1--3--3--5--5------------------------|

criticism and comments welcomed
tab created by george o'hara using his ears
Добавлено: 31.12.2015
Другие материалы по этой песне:
  • Аккорды и текст

Страница создана 09.04.2012
http://primanota.ru/dismemberment-plan/ellen-and-ben-chords.htm
Привет, Гость.
Предлагаем пройти революционный курс по гитаре.
Подарок от PrimaNota.Ru, забирай!