PrimaNota.ru - самый крупный в мире бесплатный архив песенных текстов, аккордов, табулатур и нот


Dismemberment Plan - Automatic - текст песни, таба, видео

Регистрация Запомнить меня
Войти через:  Facebook Google Twitter Vk Yandex Mail.ru

Dismemberment Plan - Automatic - текст песни, таба, видео

Печатать
Просмотров: 91


0:00

Gtr. 1 amp; 2 (Acoustic)
Verse:

e-----------------------|
b-----------------------|
g-----4----4----4---4---|
d-----4----4----4---4---|
a-------------2---0-----|
e---0----2--------------|

1:23

Chorus:

e--------------------------------------|
b---3-----------------1----------------|
g---4-----------------2----------------|
d---4-----------------2----------------| x2
a---3-----------------1----------------|
e--------------------------------------|

(continued)
e--------------------|
b---1----------------|
g---2----------------|
d---2----------------|
a---0----------------|
e--------------------|
Caught inbetween... yeah

3:20
Gtr. 3 w/ echo

Outro:

e-------------------------------------------------|
b---5/7-------------0----------------0--0--0------|
g-------------------------------------------------|
d-------------------------------------------------|
a-------------------------------------------------|
e-------------------------------------------------|

(continued)
e------------------------------|
b---------------(0)------------|
g------------------------------|
d-----------------0------------| x3
a------------------------------|
e------------------------------|

Guitar 4 w/ echo

Lightly hammer on 12th fret of high e and pull off to open high e

Lyrics:
I dunno what brings you 'round again
I dunno what sends you on your way once more, it's not for me to say
there's a bright light right around the bend
see it bathe us both in that fluorescent glow, so monstrous and final

I could see you through the dirty waves
smiling like a vampire as you disappeared beneath the whitecaps
but a man can't live for what he saves
I could feel my toes curl through the yellow sand as I watched you slip away

Once again the politics of common sense: you do and I don't
I could tell you it's not true but what's the use, it's automatic
caught inbetween

was a star that once burned crazy red
an ashen globe that spins with dead momentum lost in absolute space
even as this wavelength pulses dread
linger like the cold burn of electric shocks, so slow to fade away

Once again the fireworks of bad ideas: you will and I won't
light the sky with long-gone hate that comes from where it's automatic
caught inbetween  

Добавлено: 26.02.2014
Другие материалы по этой песне:
  • Аккорды и текст

Страница создана 20.05.2012
http://primanota.ru/dismemberment-plan/automatic-chords.htm
Привет, Гость.
Предлагаем пройти революционный курс по гитаре.
Подарок от PrimaNota.Ru, забирай!