PrimaNota.ru - самый крупный в мире бесплатный архив песенных текстов, аккордов, табулатур и нот


Disidente - Igual Que Tu - таба, видео

Регистрация Запомнить меня
Войти через:  Facebook Google Twitter Vk Yandex Mail.ru

Disidente - Igual Que Tu - таба, видео

Печатать
Просмотров: 103
-------------------------------------------------------------------------------
                             IGUAL QUE TU - Disidente
-------------------------------------------------------------------------------
Tabbed by: caverman
Email:


Afinación: bemol, 6ta cuerda en Drop D

Nota:
Si no afinas toda la guitarra primero en bemol y luego la 6ta en D no va a sonar.


   INTRO
e|---------------------------------------------------------------------------|
B|---------------------------------------------------------------------------|
G|-------------2---2--4-----2-----2---2--4-----2-----------------------------|
D|---4-4-----4---4-------4------4---4-------4--------------------------------|
A|---4-4---------------------------------------------------------------------|
E|---4-4---------------------------------------------------------------------|



e|---------------------------------------------------------------------------|
B|--3------------------------------------------------------------------------|
G|--2-2-2-2-4-4-4-4-2--------------------------------------------------------|
D|--0-0-0-0-2-2-2-2-X--------------------------------------------------------|
A|--0-0-0-0-2-2-2-2-4--------------------------------------------------------|
E|--0-0-0-0-2-2-2-2-4--------------------------------------------------------|

e|---------------------------------------------------------------------------|
B|---------------------------------------------------------------------------|
G|--2-2-2-2-2-2-2-2-2-2-2-2-2-2-2-2-2-2-2-2----------------------------------|
D|--X-X-X-X-X-X-X-X-X-X-X-X-X-X-X-X-X-X-X-X----------------------------------|
A|--4-4-4-4-4-4-4-4-4-4-4-4-4-4-4-4-4-4-4-4----------------------------------|
E|--4-4-4-4-4-4-4-4-4-4-4-4-4-4-4-4-4-4-4-4----------------------------------|

e|---------------------------------------------------------------------------|
B|---------------------------------------------------------------------------|
G|--2-------4-4-4-4----------------------------------------------------------|
D|--0-0-0-0-2-2-2-2----------------------------------------------------------|
A|--0-0-0-0-2-2-2-2----------------------------------------------------------|
E|--0-0-0-0-2-2-2-2----------------------------------------------------------|

  Es tan dificil ...
e|------------------------------------------------------------|
B|------------------------------------------------------------|
G|-2-------2-2-2-2-2-------2-2-2-2----------------------------|
D|-4-4-4-4-0-0-0-0-4-4-4-4-0-0-0-0----------------------------|
A|-4-4-4-4-0-0-0-0-4-4-4-4-0-0-0-0----------------------------|
E|-4-4-4-4-0-0-0-0-4-4-4-4-0-0-0-0----------------------------|



   COROS guitarra 01
    yo no pienso igua que tu.......

    F"      D       A       E
e|---------------------------------------------------------------------------|
B|------------------2-2-2-2--------------------------------------------------|
G|--6-------2-2-2-2-2-2-2-2-4-4-4-4------------------------------------------|
D|--4-4-4-4-0-0-0-0-2-2-2-2-2-2-2-2------------------------------------------|
A|--4-4-4-4-0-0-0-0-0-0-0-0-2-2-2-2------------------------------------------|
E|--4-4-4-4-0-0-0-0---------2-2-2-2------------------------------------------|

   COROS guitarra 02

                  br  Bend release                  
e|--0-0-0-0-0-0-0-0-0-0-0-0-0-0-0-0-0-0-0-0-0-0-0-0-0-0-0-0------------------|
B|--2-2-2-2-2-2-2-3-3-3-3-3-3-3-2-2-2-2-2-2-2-3-3-3-3-3-3-3------------------|
G|---------------------------------------------------------------------------|
D|---------------------------------------------------------------------------|
A|---------------------------------------------------------------------------|
E|---------------------------------------------------------------------------|

   Repetir
e|---------------------------------------------------------------------------|
B|---------------------------------------------------------------------------|
G|---------------------------------------------------------------------------|
D|--4-4---4--4--4-4----------------------------------------------------------|
A|--4-4---4--4--4-4----------------------------------------------------------|
E|--4-4---4--4--4-4----------------------------------------------------------|

Puente
    D              F=
e|-----------------------------------------------------------------------------|
B|--3--------------2-----------------------------------------------------------|
G|--2--------------2-----------------------------------------------------------|
D|--0--------------4-----------------------------------------------------------|
A|--0--------------4-----------------------------------------------------------|
E|--0--------------4-----------------------------------------------------------|


adora el arte de  extrañar,
la misma  linea que cruzar
jamas te puedo convencer.
si fuera hoy mi funeral,
precisamente que  diras.
jamas  te puedo completar.

es tan dificil complacer
nunca te puedo comprender.
es tan dificil complacer
nunca te puedo convencer.

yo no pienso igual que tu,igual que tu

siento que me desvele.
durmiendo en sueños otra vez
jamas  te puedo convencer
apenas puedo repirar,
la misma brisa que inhalar
jamas te puedo completar.



************************************

| /   slide up
| \   slide down
| h   hammer-on
| p   pull-off
| ~   vibrato
| +   harmonic
| x   Mute note
| b   Bend
| pb  Pre-bend
| br  Bend release
| pbr Pre-bend release
| brb Bend release bend

************************************
Добавлено: 28.05.2012
Другие материалы по этой песне:
  • Аккорды и текст

Страница создана 28.05.2012
http://primanota.ru/disidente/igual-que-tu-chords.htm
Привет, Гость.
Предлагаем пройти революционный курс по гитаре.
Подарок от PrimaNota.Ru, забирай!