PrimaNota.ru - самый крупный в мире бесплатный архив песенных текстов, аккордов, табулатур и нот


Dishwalla - Tainted Love - аккорды и текст, видео

Регистрация Запомнить меня
Войти через:  Facebook Google Twitter Vk Yandex Mail.ru

Dishwalla - Tainted Love - аккорды и текст, видео

Печатать
Просмотров: 131
Tainted Love
Dishwalla
Dishwalla-Tainted Love

PM=palm mute
b=bend
/ \ =slide
~ =let ring
h=hammer on
x=pickrake

Standard Tuning

Intro
E |----------------|
B |----------------|
D |---------6-6-35-| x8
G |-3-3-6-6-6-6-35-|
A |-3-3-6-6-4-4-13-|
D |-1-1-4-4--------|
    ^ ^ ^ ^ ^ ^
   PM----------

he's just playing with he volume during the intro

Verse 1
E |-----------|
B |-----------|
G |-----------| x1
D |-3-3---3-3-|
A |-3-3---3-3-|
E |-1-1---1-1-|
    ^ ^   ^ ^
    PM-------
Sometimes, I feel, Iv'e got to, runaway, I've got to get away...

Verse 2
E |----------------|
B |----------------|
G |---------6-6-35-| x3
D |-3-3-6-6-4-6-33-|
A |-3-3-6-4-4-4-13-|
E |-1-1-4-4--------|
    ^ ^ ^ ^ ^ ^
    PM---------

because you really don't want anymore from me to make things right
you need someone, to hold you tight, and you think love is to play..

Pre-Chorus
E |------------------------------------------------|
B |------------------------------------------------|
G |--------------------------6~~~3~~~5-5-5-5-5-5-5-| x1
A |-3-3-3--6-6-6-----3~~~6~~~6~~~3~~~5-5-5-5-5-5-5-|
D |-3-3-3--6-6-6-----3~~~6~~~4~~~1~~~3-3-3-3-3-3-3-|
E |-1-1-1--4-4-4-----1~~~4~~~----------------------|
                                     ^ ^ ^ ^ ^ ^ ^
                                     PM-----------

but I'm sorry I don't play that way. Once I ran to you, now I run from
you, this tainted love you've given, i give you all a boy can give you,
take my tears and thats not nearly all

Chorus
E |----------------|
B |----------------|
D |---------6-6-35-| x1
G |-3-3-6-6-6-6-35-|
A |-3-3-6-6-4-4-13-|
D |-1-1-4-4--------|
    ^ ^ ^ ^ ^ ^
   PM----------

tainted love, ohh, tainted love

Verse 3
E |---------------------------------------------------------------------|
B |---------------------------------------------------------------------|
G |--------------------------------------------6~-----------------------| x3
D |-------------3~--------------6~-------------6~-----------------------|
A |-------------3~--------------6~-4-4-4-4-4-4-4~-1-1-xxxxxx-3-3-xxxxxx-|
E |-1-1-1-1-1-1-1~--4-4-4-4-4-4-4~--------------------------------------|
    ^ ^ ^ ^ ^ ^     ^ ^ ^ ^ ^ ^    ^ ^ ^ ^ ^ ^    ^ ^        ^ ^
    PM---------     PM---------    PM---------    PM-        PM-
                                                  ^ ^ ^^^^^^ ^ ^ ^^^^^^
(on the third time, dont do the pick rakes or the PM's on these)

oh baby baby baby, where did our love go, tell me do u really love me?

Outro
E |----------------|
B |----------------|
D |---------6-6-35-|
G |-3-3-6-6-6-6-35-|
A |-3-3-6-6-4-4-13-|
D |-1-1-4-4--------|
    ^ ^ ^ ^ ^ ^
   PM----------
(he goes insanely fast on this part, and i think he missed some chords and 
rakes
now and then)

touch me baby tainted love, touch me baby tainted love!! TOUCH ME BABY.

Tabbed by Herman Singh
comments/questions?soccerherm@hotmail.com
     
Добавлено: 02.08.2013
Вам также может быть интересно:
Другие материалы по этой песне:
  • Аккорды и текст

Страница создана 02.08.2013
http://primanota.ru/dishwalla/tainted-love-chords.htm
Привет, Гость.
Предлагаем пройти революционный курс по гитаре.
Подарок от PrimaNota.Ru, забирай!