PrimaNota.ru - самый крупный в мире бесплатный архив песенных текстов, аккордов, табулатур и нот


Dishwalla - Coral Sky - текст песни, таба, видео

Регистрация Запомнить меня
Войти через:  Facebook Google Twitter Vk Yandex Mail.ru

Dishwalla - Coral Sky - текст песни, таба, видео

Печатать
Просмотров: 140
Авторы музыки: Scot Alexander, J. R. Richards, Pete Maloney, Rodney Browning Cravens, Jim Wood
Авторы текста: Scot Alexander, J. R. Richards, Pete Maloney, Rodney Browning Cravens, Jim Wood
-------------------------------------------------------------------------------
                             Coral Sky - Dishwalla
-------------------------------------------------------------------------------
Tabbed by: Idanl
Dmail: Idanl_22@yahoo.com

Tuning: DADGBe (Drop D)

Intro
Synth Part
e|------11---11---11-10--------------------|
B|--8h9------------------8-11p8-11p8-11p8--|
G|---------8----8--------------------------|
D|-----------------------------------------| x6
A|-----------------------------------------|
D|-----------------------------------------|

Gtr.1 (On the 3rd time):
W/ Dist.
e|----------------------|
B|----------------------|
G|--8----3----3----7----|
D|--6----1----3----5----| x4
A|--6----1----1----5----|
D|--6----1---------5----|

Gtr. 2 (On the 5th time):
W/ Dist.
e|---------------------------------------------------------------------------|
B|--8-------8-----8-----8-------------8---6------6----6----6-----------------|
G|--10b12---10b12-10b12-10b12r(10)--------8b10---8b10-8b10-8b10----10--------|
D|----------------------------------8----------------------------8-----------|
A|---------------------------------------------------------------------------|
D|---------------------------------------------------------------------------|
                                V - pick while the 10 is still bent to 12
e|---------------------------------------------------------------------------|
B|---------------------------------------------------------------------------|
G|-------8----8----8----8----8--10b12-12-12-12-12-12-12r(10)-8~-(hold)-------|
D|--8h10---10---10---10---10-------------------------------------------------|
A|---------------------------------------------------------------------------|
D|---------------------------------------------------------------------------|

Verse
Gtr. 1
e|---------------------------------------------------------------------------|
B|---------------------------------------------------------------------------|
G|---------------------------------------------------------------------------|
D|--1-1-x--1--1-1---3-3-x--3--3-3---6-6-x--6--6-6---1-1-x--1-x-4~------------|
A|--1-1-x--1--1-1---3-3-x--3--3-3---6-6-x--6--6-6---1-1-x--1-x-4~------------|
D|--1-1-x--1--1-1---3-3-x--3--3-3---6-6-x--6--6-6---1-1-x--1-x-4~------------|

e|---------------------------------------------------------------------------|
B|---------------------------------------------------------------------------|
G|------------------------------------------------------7-7-7-7-7-7----------|
D|--1-1-x--1--1-1---3-3-x--3--3-3---6-6-x--6--6-6---x-x-5-5-5-5-5-5----------|
A|--1-1-x--1--1-1---3-3-x--3--3-3---6-6-x--6--6-6---x-x-5-5-5-5-5-5----------|
D|--1-1-x--1--1-1---3-3-x--3--3-3---6-6-x--6--6-6---x-x-5-5-5-5-5-5----------|

Gtr 2. (Before every chord change. In other words, right after Eb, F and Ab):
W/ Reverb
e|-----------|
B|--8-8-8-8--|
G|--0-0-0-0--|
D|-----------|
A|-----------|
D|-----------|

Bridge
W/ light Dist.
e|---------------------------------------------------------------------------|
B|---------------------------------------------------------------------------|
G|------------------------------------------------------------7-7-7-7-7-7----|
D|----------6-----6----------8-----8-----------6-----6----x-x-5-5-5-5-5-5----|
A|------6-------6---6------6-----6---6-----6-------6---6--x-x-5-5-5-5-5-5----|
D|--5/6------------------5---------------6----------------x-x-5-5-5-5-5-5----|

Chorus (Synth intro playing in the background)
W/ Heavy Dist.
e|----------------------|
B|----------------------|
G|--8----3----3----7----|
D|--6----1----3----5----| x4
A|--6----1----1----5----|
D|--6----1---------5----|

End with:
e|-------|
B|-------|
G|--8----|
D|--6----|
A|--6----|
D|--6----|

Verse

Bridge

Chorus x4

Solo (Background)
Gtr. 1 (Same as verse, but without the mutes)
e|---------------------------------------------------------------------------|
B|---------------------------------------------------------------------------|
G|---------------------------------------------------------------------------|
D|--1------3------6------1------4~-----1------3------6------5----------------|
A|--1--X8--3--X8--6--X8--1--X4--4~-----1--X8--3--X8--6--X8--5--X8------------|
D|--1------3------6------1------4~-----1------3------6------5----------------|

Solo
Gtr. 2
e|------------------------------------------------------------------------------|
B|--8-------8-----8-----8-------------8---6------6------------------------------|
G|--10b12---10b12-10b12-10b12r(10)--------8b10---8b10--X6-----------------8-----|
D|----------------------------------8-----------------------8--8h10-8h10--------|
A|------------------------------------------------------------------------------|
D|------------------------------------------------------------------------------|

e|---------------------------------------------------15~----------------------------|
B|-----------------11--------------------------------18b20~---16---------18---------|
G|--10-10h12-10h12----12-12-----12-----12-----12--------------19b20--X7--21b22--X7--|
D|-----------------------15b17--15b17--15b17--15b17---------------------------------|
A|----------------------------------------------------------------------------------|
D|----------------------------------------------------------------------------------|

This part is r-e-a-l-l-y fast!
e|----------------------------------------------------------15-18-15--------------------------------15~------------|
B|--------16----------16-----------------------------16-18-----------18-16----16-18-16----16-18-16--18b20~-(hold)--|
G|--17-17----17-15h17----17-------15----15b17r(15)~------------------------15----------15--------------------------|
D|--------------------------15h17----17----------------------------------------------------------------------------|
A|-----------------------------------------------------------------------------------------------------------------|
D|-----------------------------------------------------------------------------------------------------------------|

(NOTICE: The first 16 are almost completely muted, and the rest are Palm Muted)
   Mute    P.M (Release slowly)
e|------------------|
B|------------------|
G|--7-------7-------|
D|--5-------5-------|
A|--5--X16--5--X16--|
D|--5-------5-------|

Chorus
e|----------------------|
B|----------------------|
G|--8----3----3----7----|
D|--6----1----3----5----| x8
A|--6----1----1----5----|
D|--6----1---------5----|

End with Verse Gtr. 1 & 2 (without the last chord)
e|-------------------------------------------------|
B|-------------------------------------------------|
G|-------------------------------------------------|
D|--1-1-x--1--1-1---3-3-x--3--3-3---6-6-x--6--6-6--|
A|--1-1-x--1--1-1---3-3-x--3--3-3---6-6-x--6--6-6--|
D|--1-1-x--1--1-1---3-3-x--3--3-3---6-6-x--6--6-6--|

| /  slide up
| \  slide down
| h  hammer-on
| p  pull-off
| ~  vibrato
| +  harmonic
| x  Mute note
===============================================================================
Добавлено: 02.05.2012
Другие материалы по этой песне:

Страница создана 02.05.2012
http://primanota.ru/dishwalla/coral-sky-chords.htm
Привет, Гость.
Предлагаем пройти революционный курс по гитаре.
Подарок от PrimaNota.Ru, забирай!