PrimaNota.ru - самый крупный в мире бесплатный архив песенных текстов, аккордов, табулатур и нот


Dishwalla - Angels And Devils - аккорды и текст, видео

Регистрация Запомнить меня
Войти через:  Facebook Google Twitter Vk Yandex Mail.ru

Dishwalla - Angels And Devils - аккорды и текст, видео

Печатать
Просмотров: 139
Уроки эстрадного вокала в Санкт-Петербурге
Angels And Devils
Dishwalla
Song Title: Angels or Devils
Artist: Dishwalla
Album: Opaline
Tabbed by GuitarSuperstar

Tuning (low to high): Eb Ab Db Gb Bb eb
(Standard tuning down one half step) 

Intro and Verse
eb----0-0-0-0--0-0-0-0--0-0-0-0--0-0-0-0----
Bb----1-1-1-1--0-0-1-3--1-1-1-1--0-0-1-3----
Gb----0-0-0-0--0-0-0-0--2-2-2-2--0-0-0-0----
Db----2-2-2-2--0-0-0-0--2-2-2-2--2-2-2-2----
Ab----3-3-3-3--2-2-2-2--0-0-0-0--2-2-2-2----
Eb-------------3-3-3-3----------------------

Pre-Chorus chords
eb----1----1----
Bb----1----3----
Gb----2----2----
Db----3----0----
Ab----3---------
Eb----1---------

Chorus chords (not sure about the D chord on the second part)
eb----0----0----0----1----|----0----0----0----0----2----1----
Bb----1----0----1----1----|----1----0----1----0----3----1----
Gb----0----1----2----2----|----0----1----2----0----2----2----
Db----2----2----2----3----|----2----2----2----0----0----3----
Ab----3----2----0----3----|----3----2----0----2---------3----
Eb-------------------1----|-------------------3---------1----

Chord before second verse
eb----0----
Bb----3----
Gb----0----
Db----2----
Ab----3----
Eb---------

Bridge chords (not sure about these)
eb----0----0----0----0----0----0----0----0----1----
Bb----1----0----1----0----1----0----1----0----1----
Gb----2----0----0----0----2----0----0----0----2----
Db----2----2----2----2----2----2----2----2----3----
Ab----0----2----3----2----0----2----3----2----3----
Eb--------------------------------------------1----

     
Добавлено: 24.11.2013
Другие материалы по этой песне:
  • Аккорды и текст

Страница создана 19.10.2013
http://primanota.ru/dishwalla/angels-and-devils-chords.htm
Привет, Гость.
Предлагаем пройти революционный курс по гитаре.
Подарок от PrimaNota.Ru, забирай!