PrimaNota.ru - самый крупный в мире бесплатный архив песенных текстов, аккордов, табулатур и нот


Dishwalla - 40 Stories - текст песни, таба, видео

Регистрация Запомнить меня
Войти через:  Facebook Google Twitter Vk Yandex Mail.ru

Dishwalla - 40 Stories - текст песни, таба, видео

Печатать
Просмотров: 136
Авторы музыки: Scot Alexander, J. R. Richards, Pete Maloney, Rodney Browning Cravens, George Pendergast, Jim Wood
Авторы текста: Scot Alexander, J. R. Richards, Pete Maloney, Rodney Browning Cravens, George Pendergast, Jim Wood
-------------------------------------------------------------------------------
                                40 Stories - Dishwalla
-------------------------------------------------------------------------------
Tabbed by: Idanl
Email: Idanl_22@yahoo.com

(Sorry about the one I submitted before, it had some mistakes - this one is 100% correct)
Hell of a great song by the (unfortunately) unrated band Dishwalla. Personally, I think they're awesome.
It's a shame there aren't enough Dishwalla tabs.

Tuning: DADGBe (Drop D)

Intro (After a VERY long synth intro)
W/ Dist.
e|---------------------------------------------------------------------------|
B|---------------------------------------------------------------------------|
G|-------------5-5-5--5--5-5-------------------------------------------------|
D|--0-0-0-0-0--5-5-5--5--5-5--5-5-5-5-5-5-5-5--------------------------------| x4
A|--0-0-0-0-0--3-3-3--3--3-3--5-5-5-5-5-5-5-5--------------------------------|
D|--0-0-0-0-0-----------------5-5-5-5-5-5-5-5--------------------------------| 

Pre Verse
    PM----------------------------------------------------------------|
e|---------------------------------------------------------------------------|
B|---------------------------------------------------------------------------|
G|------9-----7-----9-----7-----7h9------9-----6-----9-----6-----6/7---------|
D|--0-0---0-0---0-0---0-0---0-0------0-0---0-0---0-0---0-0---0-0-------------|
A|---------------------------------------------------------------------------|
D|---------------------------------------------------------------------------| 

    PM----------------------------------------------------------------|
e|---------------------------------------------------------------------------|
B|---------------------------------------------------------------------------|
G|------9-----7-----9-----7-----9p7------6-----9-----6-----9-----6/7---------|
D|--0-0---0-0---0-0---0-0---0-0------0-0---0-0---0-0---0-0---0-0-------------| 
A|---------------------------------------------------------------------------|
D|---------------------------------------------------------------------------|

Verse
    PM----------------------------------------------------------------|
e|---------------------------------------------------------------------------|
B|---------------------------------------------------------------------------|
G|------9p7---7-----9-----7-----9p7------6-----9-----6-----9----6/7/6--------|
D|--0-0-----0---0-0---0-0---0-0------0-0---0-0---0-0---0-0---0---------------|
A|---------------------------------------------------------------------------|
D|---------------------------------------------------------------------------|
    PM-----------------------------------------------------------------|       
e|---------------------------------------------------------------------------|     
B|---------------------------------------------------------------------------|
G|------7-----7-----6-----6-----6--------7-----6-----7-----6-----6h7---------|
D|--0h7---0h7---0h7---0h7---0h7---7--0h7---0h7---0h7---0h7---0h7-------------| (i'm not so sure about this part,
A|---------------------------------------------------------------------------|  you can change it a bit if you'd like)
D|---------------------------------------------------------------------------|

Pre Chorus


e|------------|      e|------------|
B|------------|      B|------------|
G|------------|      G|--4----6----|
D|--2----4----| x2   D|--4----6----|
A|--2----4----|      A|--2----4----|
D|--2----4----|      D|------------|

Chorus (Same as Intro) x4

Verse x2

Pre Chorus x1

Chorus x4

Then, while Gtr. 1 keeps playing the chorus in the back:

Gtr. 2 - SOLO
e|---------------------------------------------------------------------------|
B|---------------------------------------------------------------------------|
G|--12-12-12--11-11-11--12-12-12--11-11-11--12-12--11-11--7-7--9-9-----------|
D|---------------------------------------------------------------------------|
A|--10-10-10--9--9--9---10-10-10--9--9--9---10-10--9--9---5-5--7-7-----------|
D|---------------------------------------------------------------------------|

e|---------------------------------------------------------------------------|
B|---------------------------------------------------------------------------|
G|--12-12-12--11-11-11--12-12-12--11-11-11--12-12--11-11--19-19-19-19--------|
D|---------------------------------------------------------------------------|
A|--10-10-10--9--9--9---10-10-10--9--9--9---10-10--9--9---17-17-17-17--------|
D|---------------------------------------------------------------------------|

e|------------------------------------------------------------14----14----14-----14--17p14----14--------|
B|------------------------------------------------------------17b19-17b19-17b19------------17----17-15--|
G|--19-19-19--18-18-18--19-19-19-----19-------21-19-----------------------------------------------------|
D|--------------------------------19----19-19-------19-17-16--------------------------------------------|
A|--17-17-17--16-16-16--17-17-17------------------------------------------------------------------------|
D|------------------------------------------------------------------------------------------------------|

e|--14----14----14-----14--19p17----17--------------------------------------------------------------|
B|--17b19-17b19-17b19------------19----15-17--------------------------------------------------------|
G|--------------------------------------------12-12-12--11-11-11--12-12-12--11-11-11--12-12--11-11--|
D|--------------------------------------------------------------------------------------------------|
A|--------------------------------------------10-10-10--9--9--9---10-10-10--9--9--9---10-10--9--9---|
D|--------------------------------------------------------------------------------------------------|

e|---------------------------------------------------------------------|
B|---------------------------------------------------------------------|
G|--19-19-19--18-18-18--19-19-19--21-19----21-19-----------------------|
D|--------------------------------------19-------19-17-16~-(hold)------|
A|--17-17-17--16-16-16--17-17-17---------------------------------------|
D|---------------------------------------------------------------------|

Chorus x4

Then, again while Gtr. 1 keeps playing the chorus:

Gtr. 2
e|---------------------------------------------------------------------------|
B|---------------------------------------------------------------------------|
G|--12-12-12--11-11-11--12-12-12--11-11-11--12-12--11-11--7-7--9-9-----------|
D|---------------------------------------------------------------------------| x2
A|--10-10-10--9--9--9---10-10-10--9--9--9---10-10--9--9---5-5--7-7-----------|
D|---------------------------------------------------------------------------|

e|---------------------------------------------------------------------------|
B|---15-----x16--15-17-15-17---15-----x8---15-17-15~-(hold)------------------|
G|------14------------------------14-----------------------------------------|
D|---------------------------------------------------------------------------|
A|---------------------------------------------------------------------------|
D|---------------------------------------------------------------------------|

Gtr.1 ends with:

e|---------|
B|---------|
G|---------|
D|----5----|
A|----5----|
D|----5----|


| /  slide up
| \  slide down
| b  bend
| h  hammer-on
| p  pull-off
| ~  vibrato
===============================================================================
Добавлено: 11.04.2012
Другие материалы по этой песне:
  • Аккорды и текст

Страница создана 06.03.2012
http://primanota.ru/dishwalla/40-stories-chords.htm
Привет, Гость.
Предлагаем пройти революционный курс по гитаре.
Подарок от PrimaNota.Ru, забирай!