PrimaNota.ru - самый крупный в мире бесплатный архив песенных текстов, аккордов, табулатур и нот


Disgorge - She Lay Gutted - таба, видео

Регистрация Запомнить меня
Войти через:  Facebook Google Twitter Vk Yandex Mail.ru

Disgorge - She Lay Gutted - таба, видео

Печатать
Просмотров: 125
Band: Disgorge (USA)
Album: She Lay Gutted
Song: She Lay Gutted


Code:
Suffixes for bend:
fb - full bend       hb - half bend
qb - quarter bend    t - tap bend
r - release bend

Suffixes for harmonic:
^ - pinched harmonic      n – natural harmonic

Suffixes for mute:
. – palm mute            x – staccato mute
, - light palm mute      ; - heavy palm mute

Other:
/ - slide up to            \ - slide down to
h - hammer on              p - pull off
" - tremolo note           <> - Trill
* - see comment

Tuning C F A# D# G C

Note: Obviously this isn't gonna be totally 100% accurate, so don't expect it to be.
The usual Disgorge related disclaimer - muddy production, hard to hear, 
quicker-than-usual picking.
Enjoy the tab.


Riff 1 (0:00)
|--------------------------------------------------------------------|
|--------------------------------------------------------------------|
|-------------------------------------------------3-2----5-4---------|
|-----------------------------------------------------3------5-3-----|
|-----2-3-5--2------7--------4-------4-------6-------------------2-3-|
|-4-6-----3--0--4-6----4-6-7---4-6-7---4-6-0---0---------------------|
  . . . . .  .  . .    . . . . . . . . . . .   .  . . .  . . . . . .

-------------------------------------------------|
-------------------------------------------------|
-----------------3-5-5---------------------------|
---------------4-------5-5-----------------------|
-5-----6~------------------3-3-----5-5-4-4-------|
---4-3-5~--5-6-----------------0-2---------4-3-0-|
 . . .     . . . . . . . . . . . . . . . . . . .

Riff 2 (0:07) play 4 times
|-----------------------------------------------|
|-----------------------------------------------|
|-----------------------------------------------|
|-----------------------------------------------|
|-----2-3-5--2------7^----------------------4---|
|-4-6-----3--0--4-6-----4-3-1-0-4-3-1-0-1-3---5-|
  . . . . .  .  . .     . . . . . . . . . . . .

Riff 3a (0:19)
|-------------------------------------------------------|
|-------------------------------------------------------|
|-------------------------------------------------------|
|------------------3--4--3-------------------3--4-------|
|-4--5--4--4-5-4-3-1--2--1--4--5--4--4-5-4-3-1--2--1^~--|
|-2--3--2--2-3-2-1-1--2--1--2--3--2--2-3-2-1-1--2-------|
  .  .  .  . . . .          .  .  .  . . . .

Riff 3b (0:23)
                         [x4]
|---------------------------|-----------------|
|---------------------------|-----------------|
|---------------------------|-----------------|
|------------------3--4--3--|---------3---4---|
|-4--5--4--4-5-4-3-1--2--1--|-4---5---1---2---|
|-2--3--2--2-3-2-1-1--2--1--|-2---3---1---2---|
  .  .  .  . . . .            .   .   .   .

Riff 3a x 1 (0:32)

Riff 3c (0:36)
|-----------------------------------------------------|
|-----------------------------------------------------|
|-----------------------------------------------------|
|------------------3--4--3----------------------------|
|-4--5--4--4-5-4-3-1--2--1--4--5--4--4-5-4-5-3--4--2--|
|-2--3--2--2-3-2-1-1--2--1--2--3--2--2-3-2-3-1--2--0--|
  .  .  .  . . . .          .  .  .  . . . . .  .  .

Riff 4 (0:40)
|--------------------------------------------------------------------|
|--------------------------------------------------------------------|
|--------------------------------------------------------------------|
|----------------------------4444-------------------------------4444-|
|-------------4-2-4-2------------2222-------------4-2-4-2------------|
|-6-5-4-3-1-0---------4-3-2-----------6-5-4-3-1-0---------4-3-2------|
  . . . . . . . . . . . . .           . . . . . . . . . . . . .

---------------------------------------------------------------------|
---------------------------------------------------------------------|
---------------------------------------------------------------------|
-4"/9-----------------4444----3333-----------------------------------|
--------------55556666------------4444-------------44443333----------|
------33334444------------4444---------6-5-4-3-1-0---------33336666--|
                                       . . . . . .

-------------------------------------|
-------------------------------------|
-------------------------------------|
----------------------------44444"/9-|
-------------4-2-4-2-----------------|
-6-5-4-3-1-0---------4-3-2-----------|
 . . . . . . . . . . . . .

Riff 5 (0:49)
|------------------------------------------------------------------|
|------------------------------------------------------------------|
|----------------------------------------------------3-2-----------|
|-----------------5p4-----4p3-----------------8-7-4------5-4-------|
|---------55556666----5p4-----4p3-4-3------------------------5-6-4-|
|-33334444----------------------------3-4-2-1----------------------|
                                  . . . . . . . . .  . . . . . . .
------------------|
------------------|
------------------|
------------------|
--5-3-5-6-7-6-----|
--------------6-3-|
  . . . . . . . .

Riff 6a (0:54)
               [x3]              [x1]
|-----------------|-----------------|
|-----------------|-----------------|
|-----------------|-----------------|
|-----------------|---------3h5-5---| gtr 1
|-------2-3-------|-----------------|
|-0-1-4-----5-4-1-|-4p3-5p4-------4-|
  . . . . . . . .
               [x3]              [x1]
|-----------------|-----------------|
|-----------------|-----------------|
|-----------------|-----------------|
|-----------------|---------5p3-----| gtr 2
|-------2-3-------|-------------7---|
|-0-1-4-----5-4-1-|-4h7-5h8-------4-|
  . . . . . . . .

Riff 6b (0:58)
               [x3]              [x1]
|-----------------|-----------------|
|-----------------|-----------------|
|-----------------|-----------------|
|-----------------|-----------------|
|-------2-3-------|-6-------6-------|
|-0-1-4-----5-4-1-|---4-3-4---3-4-3-|
  . . . . . . . .   . . . . . . . .

Riff 7a (1:02)
|------------------------------------------------------------------|
|------------------------------------------------------------------|
|------------------------------------------------------------------|
|------------------------------------------------------------------|
|-6--5------6--4/5\4--------6--5------5--4/5\4--------6--5------5--|
|-4--3--77774--2/3\2--1fbr--4--3--55553--2/3\2--1fbr--4--3--55553--|
  .  .  .....  . . .        .  .  .....  . . .        .  .  .....

--------------------------------------------|
--------------------------------------------|
--------------------------------------------|
--------------------------------------------|
-4/5\4--------6--5------5----------55556666-|
-2/3\2--1^~~--4--3--55553--44444444---------|
 . . .        .  .  .....

Riff 7b (1:10)
|------------------------------------------------------------------|
|------------------------------------------------------------------|
|------------------------------------------------------------------|
|------------------------------------------------------------------|
|-6--5------6--4/5\4--------6--5------5--4/5\4--------6--5------5--|
|-4--3--77774--2/3\2--1fbr--4--3--55553--2/3\2--1fbr--4--3--55553--|
  .  .  .....  . . .        .  .  .....  . . .        .  .  .....

--------------------------------------------|
--------------------------------------------|
--------------------------------------------|
--------------------------------------------|
-4/5\4--------6--5------5--44443333---------|
-2/3\2--1fbr--4--3--55553----------33332222-|
 . . .        .  .  .....

Riff 7c (1:18)
|---------------------------|
|---------------------------|
|---------------------------|
|---------------------------|
|-6--5------5------9--8^~---|
|-4--3--55553--55557--------|
  .  .  .....  .....

Riff 2 x 1/2 (1:20)

Riff 8a (1:25)
|----------------------------------------------------------|
|----------------------------------------------------------|
|----------------------------------------------------------|
|-4--6--4--3--6--9--10--9--6-------------------------------|
|-2--4--2--1--4--7--8---7--4--5--4--3--2--2222-------------|
|-2--4--2--1--4--7--8---7--4--3--2--1--0------333322224444-|
  .  .  .  .  .     .   .  .  .  .  .  .

Riff 8b (1:29)
|-------------------------------------------------|
|-------------------------------------------------|
|-------------------------------------------------|
|-4--6--4--3--9--5------------------------8p5-3h5-| gtr 1
|-2--4--2--1--7--3--4--6--------------------------|
|-2--4--2--1--7--3--2--4--4444333300004444--------|
  .  .  .  .     .  .  .

|-------------------------------------------------|
|-------------------------------------------------|
|-----------------------------------------6p3-1h3-|
|-4--6--4--3--9--5--------------------------------| gtr 2
|-2--4--2--1--7--3--4--6--------------------------|
|-2--4--2--1--7--3--2--4--4444333300004444--------|
  .  .  .  .     .  .  .

Riff 8c (1:33)
|-------------------|
|-------------------|
|-------------------|
|-------------------|
|-6--5--8--5--3--5--|
|-4--3--6--3--1--3--|
  .  .     .  .  .

Riff 9 (1:35) play 8 times
|---------------------------------|
|---------------------------------|
|---------------------------------|
|---------------------------------|
|-2-1-----3-2-----7-6-----3-2-----|
|-----3-2-----4-3-----8-7-----4-3-|
  . . . . . . . . . . . . . . . .

Riff 10a (1:51)
|--------------------------------------------------------------------|
|--------------------------------------------------------------------|
|--------------------------------------------------------------------|
|--------------------------------------------------------5h6p5-------|
|---------3p2---------3----------3p2-------------5---3-7-------------|
|-3-3-3-3-----3-3-3-3-1--3-3-3-3-----3-3-3-3-5-4---3-1-5-------3-3-5-|
  . . . .     . . . .    . . . .     . . . . . . . . . .       . . .

------------------------------------|
------------------------------------|
------------------------------------|
---------------------------5555-----|
-----------3p2-----5555-------------|
-5-3-3-3-3-----3-1-----6666----4444-|
 . . . . .     . .

Riff 10b (1:58)
|--------------------------------------------------------------------|
|--------------------------------------------------------------------|
|--------------------------------------------------------------------|
|--------------------------------------------------------------------|
|---------3p2---------------------3p2---------3----------3p2---------|
|-3-3-3-3-----3-3-1-0-3-3-2-1-3-3-----3-3-3-3-1--3-3-3-3-----3-3-1-0-|
  . . . .     . . . . . . . . . .     . . . .    . . . .     . . . .

--------------------------------------------------------------|
--------------------------------------------------------------|
------------------------5-4-------------------------3-5-5-----|
-----------------8-7--------5-3-------------------4-------3-3-|
---------3p2---------8----------2-3-5-----6~------------------|
-3-3-2-1-----3-2----------------------4-3-5~--5-6-------------|
 . . . .     . . . . .  . . . . . . . . .     . . . . . . . .

-----------------------|
-----------------------|
-----------------------|
-----------------------|
-3-3-----5-5-4-4-------|
-----0-2---------4-3-0-|
 . . . . . . . . . . .

Riff 11 (2:05) play twice
               [x3]
|-----------------|-----------------|
|-----------------|-----------------|
|-----------------|-----------------|
|-----------------|-----------------|
|---------3-------|-4-2-4-5-6-4-----|
|-3-0-3-4---4-3-0-|-------------4-3-|
  . . . . . . . . . . . . . . . . .

Fill 2 (2:13)
|---|
|---|
|---|
|---|
|-2-|
|-0-|
  x

Pause (2:13)

Riff 12 (2:15)
              [x13]                     [x1]              [x6]
|-----------------|------------------------|-----------------|
|-----------------|------------------------|-----------------|
|-----------------|------------------------|-----------------|
|---------5-------|---------5--------------|---------5-------|
|-6-5-2-3-3-5-2-3-|-6-5-2-3-3-5-2-3-2-7^~--|-6-5-2-3-3-5-2-3-|
|-4-3-0-1---3-0-1-|-4-3-0-1---3-0-1-0------|-4-3-0-1---3-0-1-|
    . . .   . . .     . . .   . . .            . . .   . . .

End (2:38)
|-----------------|
|-----------------|
|-----------------|
|-----6-5-----5---|
|-5-4-4-3-7-6-3-2-|
|-3-2-----5-4---0-|
  . . . . . . . .

END OF SONG
Добавлено: 11.09.2013
Другие материалы по этой песне:

Страница создана 22.06.2013
http://primanota.ru/disgorge/she-lay-gutted-chords.htm
Привет, Гость.
Предлагаем пройти революционный курс по гитаре.
Подарок от PrimaNota.Ru, забирай!