PrimaNota.ru - самый крупный в мире бесплатный архив песенных текстов, аккордов, табулатур и нот


Disgorge - Enthroned Abominations - таба, видео

Регистрация Запомнить меня
Войти через:  Facebook Google Twitter Vk Yandex Mail.ru

Disgorge - Enthroned Abominations - таба, видео

Печатать
Просмотров: 78
Song : ENTHRONED ABOMINATIONS
Band : DISGORGE(US)
ALBUM : Parallels Of Infinite Torture

::TABULATURE LEGEND::
 " - tremolo             h - hammer on
 ~ - vibrato             \ - slide down
 p - pull off            / - slide down
 tr - trill              ^ - pinch harmonics
 = - sustained note      b - bend string
 p.m. - palm muting      t - tapping
[*] - number of times part or bar repeats

COMMENT: Its very hard to make absolutly correct tabulature of any
Disgorge's song. So its only my interpritation or how I play this song.
Use time markers to learn song structure..

TUNING: C [C, F, Bb, eb, g, c]

[Intro] (0:00)
|------------------------------|--------------------------|-------------|
|------------------------------|--------------------------|-------------|
|------------------------------|--------------------------|-----3~------|
|-------3----------------------|--------------------------|-3/4\3~------|
|-4-3-2-1-------------4--5--6--|---------8-------4--5--6--|-4/5\4~-3--4-|
|-2-1-0---1h2p1-2h3p2-2--3--4--|-9-8-7-0---9-8-9-2--3--4--|--------1--2-|
  . . . .             .  .  .    . . . . . . . . .  .  .           .  .

                  [Riff 1] (0:05) /quick picking/
 -----------------|----------------------------[x3]-|
 -----------------|---------------------------------|
 -----------------|---------------------------------|
 -----------------|---------4-----4-------4---------|
 -----------------|-2-5-4-3-2-5-4-2-5-4-3-2-5-4-3-2-|
 -----------------|-0-3-2-1---3-2---3-2-1---3-2-1-0-|
                  | . . . . . . . . . . . . . . . . |
 -----------------|----------------------------[x3]-|
 -----------------|---------------------------------|
 -----------------|---------------------------------|
 -----------------|---------4-----4-------4---------|
 -5-4-3-2-4-3-2-3-|-2-5-4-3-2-5-4-2-5-4-3-2-5-4-3-2-|
 -3-2-1-0-2-1-0-1-|-0-3-2-1---3-2---3-2-1---3-2-1-0-|
  . . . . . . . .   . . . . . . . . . . . . . . . .

|--------------------------------|
|--------------------------------|
|--------------------------------|
|---------4-----4----------------|
|-2-5-4-3-2-5-4-2-4"------2"-----|
|-0-3-2-1---3-2-------3"------2"-|
| . . . . . . . .                |
|--------------------------------|
|--------------------------------|
|--------------------------------|
|---------4-----4----------------|
|-2-5-4-3-2-5-4-2-4"------2"-----|
|-0-3-2-1---3-2-------3"------2"-|
  . . . . . . . .

/break/

[Riff 2] (0:12)
|---------------------[x4]-|-------------------------------|
|--------------------------|-------------------------------|
|--------------------------|-------------------------------|
|--------------------------|------------------3h4p3-4h5p4--|
|-9-8-----3"-------4"------|-9-8-----3"--------------------|
|-----7-6----2h3p2-----3"--|-----7-6----2h3p2--------------|
| . . . .                  | . . . .                      |
|---------------------[x4]-|-------------------------------|
|--------------------------|-------------------------------|
|--------------------------|-------------------------------|
|--------------------------|-------------------------------|
|-9-8-----3"-------4"------|-9-8-----3"-------3h4p3-4h5p4--|
|-----7-6----2h3p2-----3"--|-----7-6----2h3p2--------------|
  . . . .                    . . . .

-|---------------------[x3]-|-----------------|
-|--------------------------|-----------------|
-|--------------------------|-----------------|
-|--------------------------|-----------------|
-|-9-8-----3"-------4"------|-6-4-----6-4-----|
-|-----7-6----2h3p2-----3"--|-----2-3-----2-3-|
 | . . . .                  | . . . . . . . . |
-|---------------------[x3]-|-----------------|
-|--------------------------|-----------------|
-|--------------------------|-----------------|
-|--------------------------|-----------------|
-|-9-8-----3"-------4"------|-6-4-----6-4-----|
-|-----7-6----2h3p2-----3"--|-----2-3-----2-3-|
   . . . .                    . . . . . . . .

[Riff 4] (0:24)
|----------------------------[x4]-|
|---------------------------------|
|---------------------------------|
|-3/4-----4/5---------------------|
|-1/2-----2/3-----6-4-----6-4-----|
|-----0-2-----0-3-----2-3-----2-3-|
      . .     . . . . . . . . . .

[Riff 4] (0:31)
|----------------------------------------------------[x4]-|
|---------------------------------------------------------|
|---------------------------------------------------------|
|-6-0-7-0-0-0---------------------------------------------|
|-------------9-0-8-0-0-0-6-0-7-0-0-0-4-0-3-0-0-0-6-4-0-1-|
|---------------------------------------------------------|
  . . . . . . . . . . . . . . . . . . . . . . . . . . . .

[Outro 1] (0:45)
|-------------------------------------------------------------|
|-------------------------------------------------------------|
|-------------------------------------------------------------|
|-7===========================================--------3-------|
|-5===========================================-----3--1--5--3-|
|-0===========================================--0--1-----3--1-|
|                                               .  .  .  .  . |
|-------------------------------------------------------------|
|-------------------------------------------------------------|
|----3---------4----------------------------------------------|
|----1---------2----------------------------^---------3-------|
|-------1--2--------------------------2--3--1~-----3--1--5--3-|
|-0-----1--2-------0--3h4p3h4p3h4p3h4-0--1------0--1-----3--1-|
  .     .  .       .                  .  .      .  .  .  .  .

[Riff 5] (0:49)
|--------------------------------------------------------[x3]-|
|-------------------------------------------------------------|
|----3---------4----------------------------------------------|
|----1---------2----------------------------^---------3-------|
|-------1--2--------------------------2--3--1~-----3--1--5--3-|
|-0-----1--2-------0--3h4p3h4p3h4p3h4-0--1------0--1-----3--1-|
  .     .  .       .                  .  .      .  .  .  .  .

[Riff 6] (0:58)
|-----------------------[x3]-|-------------------------------|
|----------------------------|-------------------------------|
|----------------------------|-------------------------------|
|----4-4-3-----5-5----4-4----|-3-3-------4-4-5-5----3-3------|
|-3--2-2-1--4--3-3-6--2-2-5--|-1-1-4--3--2-2-3-3-6--1-1-4-4--|
|-1---------2------4------3--|-----2--1----------4------2-2--|
  .  . . .  .  . . .  . . .    . . .  .  . . . . .  . . . .

[Riff 7] (1:05)
|--------------------------|---------------------------|
|--------------------------|---------------------------|
|--------------------------|---------------------------|
|--------------4-----------|-6------------4------------|
|-3--4--5--6-6-2--4--5--6--|-4--6--7--8-8-2--4--5--6---|
|-1--2--3--4-4----2--3--4--|----4--5--6-6----2--3--4---|
| .  .  .  . . .  .  .  .  | .  .  .  . . .  .  .  .  |
|--------------------------|---------------------------|
|--------------------------|---------------------------|
|--------------------------|---------------------------|
|--------------4-----------|-6------------4------------|
|-3--4--5--6-6-2--4--5--6--|-4--6--7--8-8-2--4--5--6---|
|-1--2--3--4-4----2--3--4--|----4--5--6-6----2--3--4---|
  .  .  .  . . .  .  .  .    .  .  .  . . .  .  .  .

-|--------------------------|-------------------------------|
-|--------------------------|-------------------------------|
-|--------------------------|-------------------------------|
-|--------------4-----------|-6------------4----------------|
-|-3--4--5--6-6-2--4--5--6--|-4--6--7--8-8-2--4---^----^----|
-|-1--2--3--4-4----2--3--4--|----4--5--6-6----2---3/../4----|
 | .  .  .  . . .  .  .  .  | .  .  .  . . .  .            |
-|--------------------------|-------------------------------|
-|--------------------------|-------------------------------|
-|--------------------------|-------------------------------|
-|--------------4-----------|-6------------4----------------|
-|-3--4--5--6-6-2--4--5--6--|-4--6--7--8-8-2--4---5----6----|
-|-1--2--3--4-4----2--3--4--|----4--5--6-6----2---3----4----|
   .  .  .  . . .  .  .  .    .  .  .  . . .  .   .    .

-|------------------------------|-----------------------------------|
-|------------------------------|-----------------------------------|
-|------------------------------|-----------------------------------|
-|--------------4---------------|-6----------------4----------------|
-|-3--4--5--6-6-2--4---^----^---|-4--6---^----^----2--4---^----^----|
-|-1--2--3--4-4----2---3/../4---|----4---3/--/4-------2---3/../4----|
 | .  .  .  . . .  .            | .  .             .  .            |
-|------------------------------|-----------------------------------|
-|------------------------------|-----------------------------------|
-|------------------------------|-----------------------------------|
-|--------------4---------------|-6----------------4----------------|
-|-3--4--5--6-6-2--4---5----6---|-4--6---7----8--8-2--4---5----6----|
-|-1--2--3--4-4----2---3----4---|----4---5----6--6----2---3----4----|
   .  .  .  . . .  .   .    .     .  .   .    .  . .  .   .    .

-|------------------------------|----------------------------------|
-|------------------------------|----------------------------------|
-|------------------------------|----------------------------------|
-|--------------4---------------|-6----------------4---------------|
-|-3--4--5--6-6-2--4---5----6---|-4--6---^----^----2--4---^----^---|
-|-1--2--3--4-4----2---3----4---|----4---3/../4-------2---3/../4---|
 | .  .  .  . . .  .   .    .   | .  .             .  .            |
-|------------------------------|----------------------------------|
-|------------------------------|----------------------------------|
-|------------------------------|----------------------------------|
-|--------------4---------------|-6----------------4---------------|
-|-3--4--5--6-6-2--4---^----^---|-4--6---7----8--8-2--4---5----6---|
-|-1--2--3--4-4----2---3/../4---|----4---5----6--6----2---3----4---|
   .  .  .  . . .  .              .  .   .    .  . .  .   .    .

[Riff 8] (1:18)
|------------------------------------------------------[x4]-|
|-----------------------------------------------------------|
|-----------------------------------------------------------|
|----------------------6"...--------------------------------|
|---------8"-------------------------4"------1"------2"-----|
|-0"--5"------7"-4h5h6-------0"--1"------3"------2"------1"-|

[Outro 1] (1:31)
|-----------------|
|-----------------|
|-----------------|
|-----------------|
|-----------------|
|-111-222-333-444-|
  ... ... ... ...

[Riff 9] (1:33) /2 times/
|------------------------------|--------------------------------|
|-------------------------^----|--------------------------------|
|----------------^--------3~---|--------------------------------|
|-------^--------5~------------|---------5"------4"-------------|
|-4--5--3~---------------------|---------------------------2~---|
|-2--3------0-0-----0-0-0------|-3-2-3-2-----3-3-----2-1-2------|
  .  .      . .     . . .        . . . .     . .     . . .

-|------------------------------|---------------------------------------|
-|------------------------------|---------------------------------------|
-|----------------^-------------|---------------------------------------|
-|-------^--------5~------------|---------2h3p2-------------------------|
-|-4--5--3~----------------^----|-----------------------2h3p2-----3h4p3-|
-|-2--3------0-0-----2-1-2-3~---|-0-2-3-2-------0-4-3-2-------0-2-------|
   .  .      . .     . . .        . . . .

[Outro 2] (1:47)
|-------------------------------------------|
|-------------------------------------------|
|-------------------------------------------|
|----------------------6"...----------------|
|---------8"-------------------------4"-----|
|-0"--5"------7"-4h5h6-------0"--1"------3"-|

[Riff 2] (1:49) /variation/
|---------------------[x4]-|-------------------------[x4]-|
|--------------------------|------------------------------|
|--------------------------|------------------------------|
|--------------------------|------------------3h4p3-4h5p4-|
|-9-8-----3"-------4"------|-9-8-----3"-------------------|
|-----7-6----2h3p2-----3"--|-----7-6----2h3p2-------------|
| . . . .                  | . . . .                      |
|---------------------[x4]-|-------------------------[x4]-|
|--------------------------|------------------------------|
|--------------------------|------------------------------|
|--------------------------|------------------------------|
|-9-8-----3"-------4"------|-9-8-----3"-------3h4p3-4h5p4-|
|-----7-6----2h3p2-----3"--|-----7-6----2h3p2-------------|
  . . . .                    . . . .

[Riff 10] (2:00) /quick alternate picking/
|----------------------------[x2]--|
|----------------------------------|
|----------------------------------|
|----------------------------------|
|-2-3-4-4-2-3-4-4-6-5-2-2-3-2-4-2--|
|-0-1-2-2-0-1-2-2-4-3-0-0-1-0-2-0--|
  . . . . . . . . . . . . . . . .

-|----------------------------------------------------[x3]-|
-|---------------------------------------------------------|
-|---------------------------------------------------------|
-|---------------------------------------------------------|
-|-2-3-4-4-2-3-4-4-6-5-2-2-3-2-4-2-2-3-4-4-6-5-2-2-3-2-4-2-|
-|-0-1-2-2-0-1-2-2-4-3-0-0-1-0-2-0-0-1-2-2-4-3-0-0-1-0-2-0-|
   . . . . . . . . . . . . . . . . . . . . . . . . . . . .

[Riff 11] (2:16)
|--------------------------------------------------|
|--------------------------------------------------|
|----3---------4-----------------------------------|
|----1---------2----------------------------^------|
|-------1--2--------------------------2--3--1~-----|
|-0-----1--2-------0--3h4p3h4p3h4p3h4-0--1------0--|
  .     .  .       .                  .  .      .

-|------------------------------------------------------------[x2]--|
-|------------------------------------------------------------------|
-|------------------------------------------------------------------|
-|-6-0-7-0-0-0------------------------------------------------------|
-|-------------9-0-8-0-0-0-6-0-7-0-0-0-4-0-3-0-0-0-6-4-0-1-4-3-0-1--|
-|------------------------------------------------------------------|
   . . . . . . . . . . . . . . . . . . . . . . . . . . . . . . . .

-|--------------------------------------|
-|--------------------------------------|
-|----3---------4-----------------------|
-|----1---------2-----------------------|
-|-------1--2---------------------------|
-|-0-----1--2-------0--3h4p3h4p3h4p3h4--|
   .     .  .       .

-|------------------------------------------------------------[x2]-|
-|-----------------------------------------------------------------|
-|-----------------------------------------------------------------|
-|-6-0-7-0-0-0-----------------------------------------------------|
-|-------------9-0-8-0-0-0-6-0-7-0-0-0-4-0-3-0-0-0-6-4-0-1-4-3-0-1-|
-|-----------------------------------------------------------------|
   . . . . . . . . . . . . . . . . . . . . . . . . . . . . . . . .

[Riff 12] (2:34) /2 times/
|-------------------------|--------------------------|
|-------------------------|--------------------------|
|-------------------------|--------------------------|
|----1--------------------|----------3-----------3---|
|-3--1--3--1--3--4--3--1--|-5--4--3--3--5--4--3--3---|
|-3-----3--1--3--4--3--1--|-5--4--3-----5--4--3------|
  .  .  .  .  .  .  .  .    .  .  .  .  .  .  .  .

-|-------------------------|--------------------------|
-|-------------------------|--------------------------|
-|-------------------------|--------------------------|
-|----1--------------------|----------3-----------^---|
-|-3--1--3--1--3--4--3--1--|-5--4--3--3--5--4--3--3~--|
-|-3-----3--1--3--4--3--1--|-5--4--3-----5--4--3------|
   .  .  .  .  .  .  .  .    .  .  .  .  .  .  .

[Intro] (2:47) /variation/
|--------------------------|--------------|
|--------------------------|--------------|
|--------------------------|-----3~-------|
|--------------------------|-3/4\3~-------|
|---------8-------4--5--6--|-4/5\4~-3--4--|
|-9-8-7-0---9-8-9-2--3--4--|--------1--2--|
  . . . . . . . . . . . .           .  .

[Riff 1] (2:50) /quick picking/
|----------------------------[x4]-|
|---------------------------------|
|---------------------------------|
|---------4-----4-------4---------|
|-2-5-4-3-2-5-4-2-5-4-3-2-5-4-3-2-|
|-0-3-2-1---3-2---3-2-1---3-2-1-0-|
  . . . . . . . . . . . . . . . .

[RIFF 3] (2:58)  /4 times/

[Riff 13] (3:06)
|--------------------[x4]-|----------------------------[x2]--|
|-------------------------|----------------------------------|
|-------------------------|----------------------------------|
|-------------------------|----------------------------------|
|-2-3-4-4-2-3-4-4-6-5-2-2-|-2-3-4-4-2-3-4-4-6-5-2-2-3-2-4-2--|
|-0-1-2-2-0-1-2-2-4-3-0-0-|-0-1-2-2-0-1-2-2-4-3-0-0-1-0-2-0--|
  . . . . . . . . . . . .   . . . . . . . . . . . . . . . .

 -----------------|----------------------------[x4]-|-----------------|
 -----------------|---------------------------------|-----------------|
 -----------------|---------------------------------|-----------------|
 -----------------|---------------------------------|-----------------|
 -2-3-4-4-6-5-2-2-|-2-3-4-4-2-3-4-4-6-5-2-2-3-2-4-2-|-6-5-2-2-2-3-4-4-|
 -0-1-2-2-4-3-0-0-|-0-1-2-2-0-1-2-2-4-3-0-0-1-0-2-0-|-4-3-0-0-0-1-2-2-|
  . . . . . . . .   . . . . . . . . . . . . . . . .   . . . . . . . .

[RIFF 8] (3:23) /2 times/

[Outro 3] (3:30)
|----------------------------|
|----------------------------|
|----------------------------|
|----------------------5====-|
|---------8"-----------------|
|-0"--5"------7"-4h5h6-3====-|

[RIFF 12] (3:32) /2 times/
[OUTRO 2] (3:46)
[RIFF 9] (3:47) /2 times/

[Ending] (4:00)
|----------------------------|------------------\
|----------------------------|------------------\
|----------------------------|------------------\
|----------------------6"...-|------------------\
|---------8"-----------------|-6-5-3-5----------\
|-0"--5"------7"-4h5h6-------|-4-3-1-3----------\
                               . . . .

END OF SONG
Добавлено: 27.08.2013
Вам также может быть интересно:
Другие материалы по этой песне:

Страница создана 27.07.2013
http://primanota.ru/disgorge/enthroned-abominations-chords.htm
Привет, Гость.
Предлагаем пройти революционный курс по гитаре.
Подарок от PrimaNota.Ru, забирай!