PrimaNota.ru - самый крупный в мире бесплатный архив песенных текстов, аккордов, табулатур и нот


Disgorge - Descending Upon Convulsive Devourment - таба, видео

Регистрация Запомнить меня
Войти через:  Facebook Google Twitter Vk Yandex Mail.ru

Disgorge - Descending Upon Convulsive Devourment - таба, видео

Печатать
Просмотров: 91
--- DISGORGE(US) ---
                   "Descending Upon Convulsive Devourment"
                     From album: "Parallels Of Infinite Torture"


                            TABULATURE LEGEND:
                   " - tremolo             h - hammer on
                   ~ - vibrato             \ - slide down
                   p - pull off            / - slide down
                  tr - tremolo picking     ^ - pinch harmonics
                   = - sustained note      b - bend string
                p.m. - palm muting         t - tapping

TUNING: C [C, F, Bb, eb, g, c]

Its very hard to make absolutly correct tabulature of any Disgorge's song.
So its only my interpritation or how I play this song.

[Riff 1]
|-------------------------------------|-------------------|
|-------------------------------------|-------------------|
|-------------------------------------|-------------------|
|-3--------4--------3-----------3--2--|-3--------4--------|
|-1--1--2--2--3--2--1--1--2--3--1--0--|-1--1--2--2--3--2--|
|-2--1--2--3--3--2--2--1--2--1--------|-2--1--2--3--3--2--|
     .  .     .  .     .  .  .  .  .       .  .     .  .

-------------------|------------------------------------------|
-------------------|------------------------------------------|
-------------------|------------------------------------------|
----4--------------|-3--------4--------3--------3-3--------3--|
-3--2--5--6--5--4--|-1--1--2--2--3--2--1----------1-----------|
-1-----3--4--3--2--|-2--1--2--3--3--2--2--2-1-0---2--2-1-0----|
 .  .  .  .  .  .       .  .     .  .     . . . .    . . . .

-|-------------------|--------------------|---------------------|
-|-------------------|--------------------|---------------------|
-|-------------------|--------------------|---------------------|
-|-3--------4--------|----3-----3/6----3--|-3--------4----------|
-|-1--1--2--2--3--2--|--------------------|-1--1--2--2--3--2----|
-|-2--1--2--3--3--2--|-1-----1--1/4-1-----|-2--1--2--3--3--2----|
      .  .     .  .    .     .      .          .  .     .  .

-|-----------------------|-------------------|--------------------|
-|-----------------------|-------------------|--------------------|
-|-----------------------|-------------------|--------------------|
-|-3--------3-3--------3-|-3--------4--------|-3------------------|
-|-1----------1----------|-1--1--2--2--3--2--|-1--1--0--7--8--1---|
-|-2--2-1-0---2--2-1-0---|-2--1--2--3--3--2--|-2--1--0--5--6--1---|
      . . . .    . . . .      .  .     . .        .  .  .  .  .

-|-------------------|-------------------|--------------------|
-|-------------------|-------------------|--------------------|
-|-------------------|-------------------|--------------------|
-|-3--------4--------|----4--------------|-3--------4---------|
-|-1--1--2--2--3--2--|-3--2--5--6--5--4--|-1--1--2--2--3--2---|
-|-2--1--2--3--3--2--|-1-----3--4--3--2--|-2--1--2--3--3--2---|
      .  .     .  .    .  .  .  .  .  .       .  .     .  .

-|-----------------------------------|
-|-----------------------------------|
-|-----------------------------------|
-|-------4----4---8------------------|
-|-4--3--2----2/6-6--3---------------|
-|-2--1--2----2/5-6--1--222222222222-|
   .  .              .

[Riff 2 (x3)]
||--------------------|--------------------||
||o-------------------|-------------------o||
||--------------------|--------------------||
||-----------4--------|-4------------------||
||o-3--4--3--2--3--2--|----5--6--6--5--4--o||
||--1--2--1--3--3--2--|----4--5--6--5--4---||
|   .  .  .  .  .  .  | .  .  .  .  .  .    |
||--------------------|--------------------||
||o-------------------|-------------------o||
||--------------------|--------------------||
||-----------4--------|-4------------------||
||o-3--4--3--2--3--2--|----5--6--6--5--4--o||
||--1--2--1--3--3--2--|----4--5--6--5--4---||
    .  .  .  .  .  .    .  .  .  .  .  .

[Riff 3]
|-------------------|---------------------|
|-------------------|---------------------|
|-------------------|---------------------|
|----------4--------|-4-------------------|
|-3--4--3--2--3--2--|----5--6--6--5--4----|
|-1--2--1--3--3--2--|----4--5--6--5--4----|
| .  .  .  .  .  .  | .  .  .  .  .  .   |
|-------------------|---------------------|
|-------------------|---------------------|
|-------------------|---------------------|
|----------4--------|-7--------------^----|
|-3--4--3--2--3--2--|----5--6--6--5--6~---|
|-1--2--1-----3--2--|----4--5--6--5-------|
  .  .  .  .  .  .       .  .  .  .

-|---------------|--------------------------------------|
-|---------------|--------------------------------------|
-|---------------|--------------------------------------|
-|-------4-^-----|----------4--------4------------------|
-|-2-------2~-2--|-3--4--3--2--3--2-----5--6--6--5--4---|
-|---3-2------1--|-1--2--1--3--3--2-----4--5--6--5--4---|
 | . . . .    .  | .  .  .  .  .  .  .  .  .  .  .  .  |
-|---------------|--------------------------------------|
-|---------------|--------------------------------------|
-|---------------|--------------------------------------|
-|-------4-^-----|----------4--------4------------------|
-|-2-------2~-2--|-3--4--3--2--3--2-----5--6--6--5--4---|
-|---3-2------1--|-1--2--1--3--3--2-----4--5--6--5--4---|
   . . .      .    .  .  .  .  .  .  .  .  .  .  .  .

-|-------------------|-------------------|
-|-------------------|-------------------|
-|-------------------|-------------------|
-|----------4--------|-4-----------------|
-|-3--4--3--2--3--2--|----5--6--6--5--4--|
-|-1--2--1--3--3--2--|----4--5--6--5--4--|
 | .  .  .  .  .  .  | .  .  .  .  .  .  |
-|-------------------|-------------------|
-|-------------------|-------------------|
-|-------------------|-------------------|
-|----------4--------|-7--------------^--|
-|-3--4--3--2--3--2--|----5--6--6--5--6~-|
-|-1--2--1-----3--2--|----4--5--6--5-----|
   .  .  .  .  .  .       .  .  .  .

[RIFF 2 (x2)]

[Outro A1]
|-----------------|---------------------|---------|
|-----------------|---------------------|---------|
|-----------------|---------------------|---------|
|-4-------4-------|------------4--------|---------|
|---3-2-3---3-2-3-|-4--5----4--2--4--3--|-3---2---|
|-----------------|-2--3-0--2-----2--1--|-1---0---|
  . . . . . . . .   .    .        .  .    .   .

[Riff 4]
|-----------------------------|----------------------------------|
|-----------------------------|----------------------------------|
|-----------------------------|----------------------------------|
|---4---4-------3---3---------|---4---4-------3---3--------------|
|-2---2-------1---1-----------|-2---2-------1---1----------------|
|---------3-2---------2-1-3-2-|---------3-2---------2-1-3-2-3-2--|
  . . . . . . . . . . . . . .           . .         . . . . . .

-|-------------------------|------------------------------|
-|-------------------------|------------------------------|
-|-------------------------|------------------------------|
-|----------------4--------|---4---4-------3---3----------|
-|-4--3--3--3--6--2--5--4--|-2---2-------1---1------------|
-|-2--1--1--1--4-----3--2--|---------3-2---------2-1-3-2--|
                             . . . . . . . . . . . . . .

-|---------------------------------|--------------------------|
-|---------------------------------|--------------------------|
-|---------------------------------|--------------------------|
-|---4---4-------3---3-------------|----------------4--4--4---|
-|-2---2-------1---1---------------|-3--4--4--4--6--2--2--3---|
-|---------3-2---------2-1-3-2-3-2-|-1--2--2--2--4-----2--3---|
           . .         . . . . . .

[Riff 5]
|-------------------------|-----------------------------|
|-------------------------|-----------------------------|
|-------------------------|-----------------------------|
|----------4--7-----------|---4---4-------3---3---------|
|-6--5--6--2--5--7--6--7--|-2---2-------1---1-----------|
|-4--3--4--------5--4--5--|---------3-2---------2-1-3-2-|
  .  .  .  .  .  .  .  .    . . . . . . . . . . . . . .

[Riff 6]
|---------------------------------|-------------------------|
|---------------------------------|-------------------------|
|---------------------------------|-------------------------|
|---4---4-------3---3-------------|----------------4--------|
|-2---2-------1---1---------------|-4--3--3--3--6--2--5--4--|
|---------3-2---------2-1-3-2-3-2-|-2--1--1--1--4-----3--2--|
  . . . . . . . . . . . . . . . .

[RIFF 5]

[Riff 7a]
|---------------------------------|---------------------------------|
|---------------------------------|---------------------------------|
|---------------------------------|---------------------------------|
|---4---4-------3---3-------------|---------------------------------|
|-2---2-------1---1---------------|-4\3---------5\4-4\3-------------|
|---------3-2---------2-1-3-2-3-2-|-2\1-1-1-1-1-3\2-2\1-1-1-1-1-1-1-|
  . . . . . . . . . . . . . . . .       . . . .         . . . . . .

[Riff 8]
|-------------------------|---------------------------------|
|-------------------------|---------------------------------|
|-------------------------|---------------------------------|
|---4---4-------3---3-----|---------------------------------|
|-2---2-------1---1-------|-------7-------------------7-----|
|---------3-2---------2-1-|-3-2-5---4-3-5-4-4-3-2-3-5---6-5-|
  . . . . . . . . . . . .   . . . . . . . . . . . . . . . .

[Riff 7b]
|---------------------------------|-----------------------------------|
|---------------------------------|-----------------------------------|
|---------------------------------|-----------------------------------|
|---4---4-------3---3-------------|-----------------------------------|
|-2---2-------1---1---------------|-4\3-------------------------------|
|---------3-2---------2-1-3-2-3-2-|-2\1-1-1-1-1-333333332222-1-1-1-1--|
  . . . . . . . . . . . . . . . .       . . . .              . . . .

[Outro B]
|---------------------------------|-------------------|
|---------------------------------|-------------------|
|---------------------------------|-------------------|
|---4---4-------3---3-------------|------------3/4-4--|
|-2---2-------1---1---------------|-7/8--5-8-4-1/2-2--|
|---------3-2---------2-1-3-2-3-2-|-5/6--3-6-2--------|
  . . . . . . . . . . . . . . . .

[Riff 9a (x2)]
||----------------------------------|----------------------------------||
||o---------------------------------|---------------------------------o||
||--------------------------6======-|----------------------------------||
||--3======---------3-5====---------|-3======---------3-6====-2======--||
||o-------------------------4======-|---------------------------------o||
||--1======--0------1-3====---------|-1======--0------1-4====-0======--||
             .                                 .

[Riff 9b (x2)]
||----------------------------------|----------------------------------||
||o---------------------------------|---------------------------------o||
||----------------------------------|----------------------------------||
||----------------------------------|----------------------------------||
||o-------------------------4".....-|---------------------------------o||
||--1".....--0"...--1"-3"..---------|-1".....--0"...--1"-4"..-0".....--||
|                                   |
||----------------------------------|----------------------------------||
||o---------------------------------|---------------------------------o||
||----------------------------------|----------------------------------||
||--------------------------2".....-|----------------------------------||
||o---------------------------------|---------------------------------o||
||--1".....--0"...--1"-3"..---------|-1".....--0"...--1"-4"..-3".....--||

[Riff 10]
|-------------------------|--------------------------|
|-------------------------|--------------------------|
|-------------------------|--------------------------|
|----------4--------4-----|-6--------3---------------|
|-3--4--3--2--2--4-----2--|----2--4-----3--4--5--2---|
|-1--2--1-----3--2-----3--|----3--2-----1--2--3--0---|
| .  .  .  .  .  .  .  .  | .  .  .  .  .  .  .  .  |
|-------------------------|--------------------------|
|-------------------------|--------------------------|
|-------------------------|--------------------------|
|----------4--------4-----|-6--------3---------------|
|-3--4--3--2--2--4-----2--|----2--4-----3--4--5--2---|
|-1--2--1-----3--2-----3--|----3--2-----1--2--3--0---|
  .  .  .  .  .  .  .  .    .  .  .  .  .  .  .  .

-|-------------------------|--------------------------------------|
-|-------------------------|--------------------------------------|
-|-------------------------|--------------------------------------|
-|----------4--------4-----|-6--------3--3-3-1-1-0-1-0-4-3-0-6-0--|
-|-3--4--3--2--2--4-----2--|----2--4------------------------------|
-|-1--2--1-----3--2-----3--|----3--2------------------------------|
 | .  .  .  .  .  .  .  .  | .  .  .  .  . . . . . . . . . . . . |
-|-------------------------|--------------------------------------|
-|-------------------------|--------------------------------------|
-|-------------------------|--------------------------------------|
-|----------4--------4-----|-6--------3---------------------------|
-|-3--4--3--2--2--4-----2--|----2--4-----3------------------------|
-|-1--2--1-----3--2-----3--|----3--2-----1------------------------|
   .  .  .  .  .  .  .  .    .  .  .  .  .

-|-------------------------|----------------------------------|
-|-------------------------|----------------------------------|
-|-------------------------|----------------------------------|
-|----------4--------4-----|-7-------8------------------------|
-|-3--4--3--2--2--4-----2--|---5-4-5---6-5-6-8-5-0-4-3-4------|
-|-1--2--1-----3--2-----3--|-----------------------------5-4--|
 | .  .  .  .  .  .  .  .  | . . . . . . . . . . . . . . . . |
-|-------------------------|----------------------------------|
-|-------------------------|----------------------------------|
-|-------------------------|----------------------------------|
-|----------4--------4-----|-7-------8------------------------|
-|-3--4--3--2--2--4-----2--|---5-4-5---6-5-6-8-5-0-4-3-4------|
-|-1--2--1-----3--2-----3--|-----------------------------5-4--|
   .  .  .  .  .  .  .  .    . . . . . . . . . . . . . . . .

-|-------------------------|-----------------------------|
-|-------------------------|-----------------------------|
-|-------------------------|-----------------------------|
-|----------4--------4-----|-6--------3--3-1-0-6-7-6-3-4-|
-|-3--4--3--2--2--4-----2--|----2--4---------------------|
-|-1--2--1-----3--2-----3--|----3--2---------------------|
 | .  .  .  .  .  .  .  .  | .  .  .  .  . . . . . . . .
-|-------------------------|-----------------------------|
-|-------------------------|-----------------------------|
-|-------------------------|-----------------------------|
-|----------4--------4-----|-6--------3--3-1-0-6-7-6-3-4-|
-|-3--4--3--2--2--4-----2--|----2--4---------------------|
-|-1--2--1-----3--2-----3--|----3--2---------------------|
   .  .  .  .  .  .  .  .    .  .  .  .  . . . . . . . .

-------------||----------------------------------------------[x2]-||
-------------||o-------------------------------------------------o||
-------------||---------------------------------------------------||
-------------||-----------4--------4-----6--------3---------------||
-------------||o-3--4--3--2--2--4-----2-----2--4-----3--4--5--2--o||
-------------||--1--2--1-----3--2-----3-----3--2-----1--2--3--0---||
             |   .  .  .  .  .  .  .  .  .  .  .  .  .  .  .  .    |
-------------||----------------------------------------------[x2]-||
-------------||o-------------------------------------------------o||
-------------||---------------------------------------------------||
-------------||-----------4--------4-----6--------3---------------||
-3--2--2--2--||o-3--4--3--2--2--4-----2-----2--4-----3--4--5--2--o||
-1--2--2--2--||--1--2--1-----3--2-----3-----3--2-----1--2--3--0---||
 .  .  .  .      .  .  .  .  .  .  .  .  .  .  .  .  .  .  .  .

[Riff 11]
|-------------------------|------------------------------|
|-------------------------|------------------------------|
|-------------------------|------------------------------|
|----------4--------4-----|-6--------3--3-1-0-6-7-6-3-4--|
|-3--4--3--2--2--4-----2--|----2--4----------------------|
|-1--2--1-----3--2-----3--|----3--2----------------------|
| .  .  .  .  .  .  .  .  | .  .  .  .  . . . . . . . . |
|-------------------------|------------------------------|
|-------------------------|------------------------------|
|-------------------------|------------------------------|
|----------4--------4-----|-6--------3--3-1-0-6-7-6-3-4--|
|-3--4--3--2--2--4-----2--|----2--4----------------------|
|-1--2--1-----3--2-----3--|----3--2----------------------|
  .  .  .  .  .  .  .  .    .  .  .  .  . . . . . . . .

-|-------------------------|-------------------------|
-|-------------------------|-------------------------|
-|-------------------------|-------------------------|
-|----------4--------4-----|-6--------3--------------|
-|-3--4--3--2--2--4-----2--|----2--4-----3--4--5--2--|
-|-1--2--1-----3--2-----3--|----3--2-----1--2--3--0--|
 | .  .  .  .  .  .  .  .  | .  .  .  .  .  .  .  .  |
-|-------------------------|-------------------------|
-|-------------------------|-------------------------|
-|-------------------------|-------------------------|
-|----------4--------4-----|-6--------3--------------|
-|-3--4--3--2--2--4-----2--|----2--4-----3--4--5--2--|
-|-1--2--1-----3--2-----3--|----3--2-----1--2--3--0--|
   .  .  .  .  .  .  .  .    .  .  .  .  .  .  .  .

[Riff 12]
|--------------------------|---------------------------|
|--------------------------|---------------------------|
|--------------------------|---------------------------|
|-------5------------6-----|-7------------5--------6---|
|-4--5--3--5-6-5--4--4--6--|-5--7-8-7--6--3--6--7--4---|
|-2--3-----3-4-3--2-----4--|----5-6-5--4-----4--5------|

-|--------------------------------------|
-|--------------------------------------|
-|--------------------------------------|
-|-7--8--------5-----------5--6---------|
-|-5--6--6--7--3--5--6--7--3--4--3--4---|
-|-------4--5-----3--4--5--------1--2---|

-|--------------------------|---------------------------|
-|--------------------------|---------------------------|
-|--------------------------|---------------------------|
-|-------5------------6-----|-7------------5--------6---|
-|-5--4--3--5-6-5--4--4--6--|-5--7-8-7--6--3--6--7--4---|
-|-3--2-----3-4-3--2-----4--|----5-6-5--4-----4--5------|

-|-------------------------------------|
-|-------------------------------------|
-|-------------------------------------|
-|-7--8--------5-----------5--6--------|
-|-5--6--6--7--3--5--6--7--3--4--3--4--|
-|-------4--5-----3--4--5--------1--2--|

[Riff 13 (x2)]
||-----------------------------|------------------------------|
||o----------------------------|------------------------------|
||-----------------------------|------------------------------|
||--------5------------6-6-----|-8-8-6-6-5-5-----------6-6----|
||o-5--4--3--5-6-5--4--4-4-6-6-|-6-6-4-4-3-3-6-6-7--8--4-4-6--|
||--3--2-----3-4-3--2------4-4-|-------------4-4-5--6------4--|
    .  .     . . .  .  . . . .   . . . . . . . . .  .  . . .

-|----------------------------|----------------------------||
-|----------------------------|---------------------------o||
-|----------------------------|----------------------------||
-|----8-8-----------------5-5-|-------6-6------------------||
-|-7--6-6-7--6--5-5-6--5--3-3-|-5--6--4-4-6--5-5-6--3-3-4-o||
-|-5------5--4--5-5-4--3------|-3--4------4--3-3-4--1-1-2--||
   .  . . .  .  . . .  .  . .   .  .  . . .  . . .  . . .

[Riff 14a (x2)]
|---------------------------------|----------------------------------|
|---------------------------------|----------------------------------|
|---------------------------------|----------------------------------|
|-3======-------------------------|-3======--------------------------|
|-------------------------4".....-|----------------------------------|
|-1======--0"...--1"-3"..---------|-1======--0"...--1"-4"..-0".....--|
|                                 |                                 |
|---------------------------------|----------------------------------|
|---------------------------------|----------------------------------|
|---------------------------------|----------------------------------|
|-3======-------------------------|-3======--------------------------|
|-------------------------4".....-|----------------------------------|
|-1======--0"...--1"-3"..---------|-1======--0"...--1"-4"..-3".....--|

-|---------------------------------|---------------------------------|
-|---------------------------------|---------------------------------|
-|---------------------------------|---------------------------------|
-|-3======-------------------------|-3======-----------------2======-|
-|-------------------------4".....-|---------------------------------|
-|-1======--0"...--1"-3"..---------|-1======--0"...--1"-4"..-0======-|
 |                                 |                                 |
-|---------------------------------|---------------------------------|
-|---------------------------------|---------------------------------|
-|---------------------------------|---------------------------------|
-|-3======-------------------------|-3======-------------------------|
-|-------------------------4".....-|---------------------------------|
-|-1======--0"...--1"-3"..---------|-1======--0"...--1"-4"..-0".....-|

[Riff 14b]
|---------------------------------|----------------------------------|
|---------------------------------|----------------------------------|
|-------------------------6======-|----------------------------------|
|-3======---------3-5====---------|-3======---------3-6====-2======--|
|-------------------------4======-|----------------------------------|
|-1======--0------1-3====---------|-1======--0------1-4====-0======--|
|          .                      |          .                      |
|---------------------------------|----------------------------------|
|---------------------------------|----------------------------------|
|-------------------------9======-|----------------------------------|
|-3======---------3-5====---------|-3======---------3-6====-5======--|
|-------------------------7======-|----------------------------------|
|-1======--0------1-3====---------|-1======--0------1-4====-3======--|
           .                                 .

-|---------------------------------|---------------------------------|
-|---------------------------------|---------------------------------|
-|-------------------------6======-|-------------------6====---------|
-|-3======---------3-5====---------|-3======-------3/6-------7======-|
-|-------------------------4======-|-------------------4====---------|
-|-1======--0------1-3====---------|-1======--0----1/4-------5======-|
 |          .                      |          .                      |
-|---------------------------------|---------------------------------|
-|---------------------------------|---------------------------------|
-|-------------------------9======-|-------------------6====---------|
-|-3======---------3-5====---------|-3======-------3/6-------2======-|
-|-------------------------7======-|-------------------4====-0======-|
-|-1======--0------1-3====---------|-1======--0----1/4---------------|
            .                                 .

[RIFF 7a] [RIFF 8] [RIFF 7b]

[Outro C]
|---------------------------------|----------------------|
|---------------------------------|----------------------|
|---------------------------------|----------------------|
|---4---4-------3---3-------------|------------3/4-4-----|
|-2---2-------1---1---------------|-7/8--5-8-4-1/2-2-----|
|---------3-2---------2-1-3-2-3-2-|-5/6--3-6-2-----------|
  . . . . . . . . . . . . . . . .

[RIFF 7a]

[Outro D]
|---------------------------------|----------------------------|
|---------------------------------|----------------------------|
|---------------------------------|----------------------------|
|---4---4-------3---3-------------|-4------3--------3-4---4----|
|-2---2-------1---1---------------|-2--3/4-1---2/3--1-2-3-2----|
|---------3-2---------2-1-3-2-3-2-|----1/2-----0/1------1------|
  . . . . . . . . . . . . . . . .

[Riff 7b]

[Outro E]
|---------------------------------|-----------------|
|---------------------------------|-----------------|
|---------------------------------|-----------------|
|---4---4-------3---3-------------|-----------------|
|-2---2-------1---1---------------|-4\3-------------|
|---------3-2---------2-1-3-2-3-2-|-2\1-1-1-1-1-1-1-|
  . . . . . . . . . . . . . . . .       . . . . . .

[Outro A2]
|-----------------|------------------------|---------------|
|-----------------|------------------------|---------------|
|-----------------|------------------------|---------------|
|-4-------4-------|--------------4---------|---------------|
|---3-2-3---3-2-3-|-4--5-----4---2--4--3---|-4------1------|
|-----------------|-2--3--0--2------2--1---|-1------0------|
  . . . . . . . .   .     .                  .      .

[Ending]
|-------------------------------------|--------------------|
|-------------------------------------|--------------------|
|-------------------------------------|--------------------|
|-3--------4--------3-----------3--2--|-3--------4---------|
|-1--1--2--2--3--2--1--1--2--3--1--0--|-1--1--2--2--3--2---|
|-2--1--2--3--3--2--2--1--2--1--------|-2--1--2--3--3--2---|
|    .  .     .  .     .  .  .  .  .  |    .  .     .  .  |
|-------------------------------------|--------------------|
|-------------------------------------|--------------------|
|-------------------------------------|--------------------|
|-3--------4--------3-----------3--2--|-3--------4---------|
|-1--1--2--2--3--2--1--1--2--3--1--0--|-1--1--2--2--3--2---|
|-2--1--2--3--3--2--2--1--2--1--------|-2--1--2--3--3--2---|
     .  .     .  .     .  .  .  .  .       .  .     .  .

-------------------|-------------------------------------------|
-------------------|-------------------------------------------|
-------------------|-------------------------------------------|
----4--------------|-3--------4---------3--------3-3--------3--|
-3--2--5--6--5--4--|-1--1--2--2--3--2---1----------1-----------|
-1-----3--4--3--2--|-2--1--2--3--3--2---2--2-1-0---2--2-1-0----|
 .  .  .  .  .  .  |    .  .     .  .      . . . .    . . . . |
-------------------|-------------------------------------------|
-------------------|-------------------------------------------|
-------------------|-------------------------------------------|
----4--------------|-3--------4---------3--------3-3--------3--|
-3--2--5--6--5--4--|-1--1--2--2--3--2---1----------1-----------|
-1-----3--4--3--2--|-2--1--2--3--3--2---2--2-1-0---2--2-1-0----|
 .  .  .  .  .  .       .  .     .  .      . . . .    . . . .

-|-------------------|-------------------------------------------|
-|-------------------|-------------------------------------------|
-|-------------------|-------------------------------------------|
-|-3--------4--------|---------------3-3-3-----------------------|
-|-1--1--2--2--3--2--|-4-4-4----------------4-4-4----------------|
-|-2--1--2--3--3--2--|--------5-5-5----------------5-5-5--6-6-6--|
 |    .  .     .  .  | . . .  . . .  . . .  . . .  . . .  . . . |
-|-------------------|-------------------------------------------|
-|-------------------|-------------------------------------------|
-|-------------------|-------------------------------------------|
-|-3--------4--------|---------------3-3-3-----------------------|
-|-1--1--2--2--3--2--|-4-4-4----------------4-4-4----------------|
-|-2--1--2--3--3--2--|--------5-5-5----------------5-5-5--6-6-6--|
      .  .     .  .    . . .  . . .  . . .  . . .  . . .  . . .

-|-----------------------------------------|-------------------|
-|-----------------------------------------|-------------------|
-|-----------------------------------------|-------------------|
-|-3--------4--------3--------3-3--------3-|-3--------4--------|
-|-1--1--2--2--3--2--1----------1----------|-1--1--2--2--3--2--|
-|-2--1--2--3--3--2--2--2-1-0---2--2-1-0---|-2--1--2--3--3--2--|
 |    .  .     .  .     . . . .    . . . . |    .  .     .  .
-|-----------------------------------------|-------------------|
-|-----------------------------------------|-------------------|
-|-----------------------------------------|-------------------|
-|-3--------4--------6--------3-6--------3-|-3--------4--------|
-|-1--1--2--2--3--2--4----------4----------|-1--1--2--2--3--2--|
-|-2--1--2--3--3--2--5--2-1-0---5--2-1-0---|-2--1--2--3--3--2--|
      .  .     .  .     . . . .    . . . .      .  .     .  .

-------------------|--------------------------------------|
-------------------|--------------------------------------|
-------------------|--------------------------------------|
----4--------------|-3--------4-----------4---------------|
-3--2--5--6--5--4--|-1--1--2--2--3--2--3--2--3--4--3--2---|
-1-----3--4--3--2--|-2--1--2--3--3--2--1-----3--4--3--2---|
 .  .  .  .  .  .  |    .  .     .  .  .  .  .  .  .  .  |
-------------------|--------------------------------------|
-------------------|--------------------------------------|
-------------------|--------------------------------------|
----4--------------|-3--------4-----------4---------------|
-3--2--5--6--5--4--|-1--1--2--2--3--2--3--2--3--4--3--2---|
-1-----3--4--3--2--|-2--1--2--3--3--2--1-----3--4--3--2---|
 .  .  .  .  .  .       .  .     .  .  .  .  .  .  .  .

-|-------------------|----------------|
-|-------------------|----------------|
-|-------------------|----------------|
-|-3--------4--------|-------4---4----|
-|-1--1--2--2--3--2--|-4--3--2---2/6--|
-|-2--1--2--3--3--2--|-2--1--2---2/5--|
 |    .  .     .  .  |
-|-------------------|----------------|
-|-------------------|----------------|
-|-------------------|----------------|
-|-3--------4--------|-------4---4----|
-|-1--1--2--2--3--2--|-4--3--2---2/6--|
-|-2--1--2--3--3--2--|-2--1--2---2/5--|
      .  .     .  .

-------|---------------------------------*|
-------|---------------------------------*|
-------|---------------------------------*|
-8--7--|-6==============================-*|
-6--5--|---------------------------------*|
-6--5--|-4==============================-*|
       |                                  |
-------|---------------------------------*|
-------|---------------------------------*|
-------|---------------------------------*|
-8--7--|-3==============================-*|
-6--5--|---------------------------------*|
-6--5--|-1==============================-*|

END OF SONG
Добавлено: 12.09.2013
Другие материалы по этой песне:

Страница создана 16.06.2013
http://primanota.ru/disgorge/descending-upon-convulsive-devourment-chords.htm
Привет, Гость.
Предлагаем пройти революционный курс по гитаре.
Подарок от PrimaNota.Ru, забирай!