PrimaNota.ru - самый крупный в мире бесплатный архив песенных текстов, аккордов, табулатур и нот


Disgorge - Demise Of The Trinity - таба, видео

Регистрация Запомнить меня
Войти через:  Facebook Google Twitter Vk Yandex Mail.ru

Disgorge - Demise Of The Trinity - таба, видео

Печатать
Просмотров: 85
--- DISGORGE(US) --- 
                            "Demise Of The Trinity" 
                     From album: "Consume The Forsaken" 
               
                            TABULATURE LEGEND: 
                   " - tremolo             h - hammer on            
                   ~ - vibrato             \ - slide down 
                   p - pull off            / - slide down 
                  tr - tremolo picking     ^ - pinch harmonics      
                   = - sustained note      b - bend string          
                p.m. - palm muting         t - tapping 

TUNING: C [C, F, Bb, eb, g, c] 

Its very hard to make absolutly correct tabulature of any Disgorge's song. 
So its only my interpretation of this song. 

[Riff 1a] 
||----------------------------------|-----------------------------------------|- 
||----------------------------------|-----------------------------------------|- 
||----------------------------------|-----------------------------------------|- 
||-----------------44445555---------|-----------------------------------------|- 
||-3---------------------------4444-|-----------------------------------------|- 
||---4-3-0-33332222--------2222-----|-0-1-2-1-4h5p4-3h4p3-0-1-2-1-4h5p4-3h4p3-|- 
                                      . . . . \___/ \___/ . . . . \___/ \___/ 

-|---------------------------------|---------------------------------|- 
-|---------------------------------|---------------------------------|- 
-|---------------------------------|---------------------------------|- 
-|-------------44445555------------|---------------------------------|- 
-|-2222----------------222244442222|-------3-4---3-4-3---1-0-3-1-0-1-|- 
-|-----44442222--------------------|-2-1-0-----1-----1-0-------------|- 
                                     . . . . . . . . . . . . . . . . 

-|--------------------------|| 
-|--------------------------|| 
-|--------------------------|| 
-|-------------444455552222-|| 
-|-2222---------------------|| 
-|-----33332222-------------|| 

[Riff 2] 
||----------------------------[x3]-|------------------------------|- 
||---------------------------------|------------------------------|- 
||---------------------------------|------------------------------|- 
||---------------------------------|---------------------3--4-----|- 
||---------1-0-1-2-----------------|---------1-0-1-2-----1--2--3--|- 
||-5-4-3-0---------0-1-2-0-3-2-1-2-|-5-4-3-0---------0-1-------1--|- 
   . . . . . . . . . . . . . . . .   . . . . . . . . . . . . . .    

-|---------------------------------|----------------------------[x2]-|- 
-|---------------------------------|---------------------------------|- 
-|---------------------------------|---------------------------------|- 
-|---------------------------------|---------------------------------|- 
-|---------5-----------------------|---------5---------3-2-1---------|- 
-|-5-4-3-0---0-5-6-0-1-2-0-1-0-2-0-|-5-4-3-0---0-5-6-0-------3-2-0-1-|- 
   . . . . . . . . . . . . . . . .   . . . . . . . . . . . . . . . . 

-|---------------------------| 
-|---------------------------| 
-|---------------------------| 
-|-----------------33--1-3-4-| 
-|---------5-------33--1-3-4-| 
-|-5-4-3-0---0-5-6-----------| 
   . . . . . . . . ..  . . . 


[Riff 3] 
||--------------------------------|--------------------------------|- 
||--------------------------------|--------------------------------|- 
||--------------------------------|--------------------------------|- 
||-------0000------------33334444-|-------0000------------33333333-|- 
||-4--5--22220000-----------------|-4--5--22220000-----------------|- 
||-2--3------333344441111---------|-2--3------333344441111---------|- 
   .  .                             .  . 
                            [Outro] 
-|------------------------||-------| 
-|------------------------||-------| 
-|------------------------||-------| 
-|---------------------^--||-------| 
-|-3--5--0--1--3--4444-1~-||-5--6--| 
-|-1--3--0--1--3----------||-3--4--| 
   .  .  .  .     ....       .  . 

[Riff 4 (x2)] 
||--------------------------------------------------|-------------------------| 
||o-------------------------------------------------|-------------------------|
||--------------------------------------------------|-------------------------| 
||--------------------------------------------------|-------------------------| 
||o-----------------------5-0-----------------------|-----------------------5-| 
||--4-0-5-4-3-2-0-2-3-2-0-----5-6-0-3-2-0-4-0-4-5-4-|-4-0-5-4-3-2-0-2-3-2-0---| 
    . . . . . . . . . . . . . . . . . . . . . . . .   . . . . . . . . . . . . 

-------------------------|--------------------------------------------------|| 
-------------------------|-------------------------------------------------o|| 
-------------------------|--------------------------------------------------|| 
-------------------------|--------------------------------------------------|| 
-0-----------------------|-----------------------5-0-----------------------o|| 
---5-6-0-3-2-0-4-0-4-5-4-|-4-0-5-4-3-2-0-2-3-2-0-----5-6-0-3-2-0-4-0-4-5-4--|| 
 . . . . . . . . . . . .   . . . . . . . . . . . . . . . . . . . . . . . . 

[Riff 5 (x2)] 
||----------------------------------|---------------------------------|- 
||o---------------------------------|---------------------------------|- 
||----------------------------------|---------------------------------|- 
||----------------------------------|---------------------------------|- 
||o-------33334444----4p3-----5--7--|-------5--6--5------4444---------|- 
||--2h3h5---------5555---5555-3--5--|-2h3h5-3--4--3--5555----6666-2-2-|- 

-|---------------------------------|---------------------------------------|| 
-|---------------------------------|--------------------------------------O|| 
-|---------------------------------|---------------------------------------|| 
-|---------------------------------|-----------55554444----------33332222--|| 
-|-------33334444----4p3-----5--7--|--------------------------------------o|| 
-|-2h3h5---------5555---5555-3--5--|-3h4p3-1111--------3h4p3-1111----------|| 
  
[Riff 6A (x2)] 
||--------------------------|--------------------------|| 
||o-------------------------|-------------------------o|| 
||--------------------------|--------------------------|| 
||-----------3--------------|----------3---------------|| 
||o-5--4--3--1--5--3--4--3--|-5--4--3--1--5--3--4--3--o|| 
||--3--2--1-----3--1--2--1--|-3--2--1-----3--1--2--1---|| 
    .  .  .     .  .  .  .    .  .  .     .  .  .  . 

[Riff 6B] 
|-------------------------|-------------------------| 
|-------------------------|-------------------------| 
|-------------------------|-------------------------| 
|-2--------1--------------|-2--------1--------------| 
|-2--3--2--1--2--1--3--2--|-2--3--2--1--2--1--3--2--| 
|----3--2-----2--1--3--2--|----3--2-----2--1--3--2--| 
  .  .  .  .  .  .  .  .    .  .  .  .  .  .  .  . 

[RIFF 6A] 

[Riff 7 (x4)] 
||-----------------------------------||---------| 
||o---------------------------------o||---------| 
||-----------------------------------||---------| 
||-----------------------------------||---------| 
||o-----------------2-0---------2-1-o||---------| 
||--3-2-5-0-3-2-5-0-----3-2-4-3------||---------| 


[Part 8] 
||-------------------------------------[x3]-|- 
||------------------------------------------|- 
||------------------------------------------|- 
||-------------2222--------4444-------------|- 
||-----33334444----33332222----33332222-----|- 
||-2222--------------------------------3333-|- 
 |                                          | 
||-------------------------------------[x3]-|- 
||------------------------------------------|- 
||------------------------------------------|- 
||-------------2222--------4444-------------|- 
||-----33334444----33332222----33332222-----|- 
||-2222--------------------------------3333-|- 

-|------------------------------------------|| 
-|------------------------------------------|| 
-|------------------------------------------|| 
-|-------------2222--------4444-------------|| 
-|-----33334444----33332222----33332222-----|| 
-|-2222--------------------------------3333-|| 
 |                                           | 
-|------------------------------------------|| 
-|------------------------------------------|| 
-|------------------------------------------|| 
-|-------------5555--------7777-------------|| 
-|-----66667777----66665555----66665555-----|| 
-|-5555--------------------------------6666-|| 

[Part 9] 
||------------------------------------------|- 
||------------------------------------------|- 
||------------------------------------------|- 
||-------------2222--------4444-------------|- 
||-----33334444----33332222----33332222-----|- 
||-2222--------------------------------3333-|- 
 |                                          | 
||------------------------------------------|- 
||------------------------------------------|- 
||------------------------------------------|- 
||-------------2222--------4444-------------|- 
||-----33334444----33332222----33332222-----|- 
||-2222--------------------------------3333-|- 

-|------------------------------------------|- 
-|------------------------------------------|- 
-|------------------------------------------|- 
-|-------------2222----22224444-------------|- 
-|-----33334444----3333--------33332222-----|- 
-|-2222--------------------------------3333-|- 
 |                                          | 
-|------------------------------------------|- 
-|------------------------------------------|- 
-|------------------------------------------|- 
-|-------------2222----22224444-------------|- 
-|-----33334444----3333--------33332222-----|- 
-|-2222--------------------------------3333-|- 


-|------------------------------------------|| 
-|------------------------------------------|| 
-|------------------------------------------|| 
-|-------------2222--------4444-------------|| 
-|-----33334444----33332222----33332222-----|| 
-|-2222--------------------------------3333-|| 
 |                                           | 
-|------------------------------------------|| 
-|------------------------------------------|| 
-|------------------------------------------|| 
-|-------------5555--------7777-------------|| 
-|-----66667777----66665555----66665555-----|| 
-|-5555--------------------------------6666-|| 

[Riff 10a (x2)] 
||------------------------------|------------------------------|| 
||o-----------------------------|-----------------------------o|| 
||------------------------------|------------------------------|| 
||-----------------^------------|----------------^-------------|| 
||o-5--4--3--------1~--2--4--3--|-5--4--3--------1~--2--4--3--o|| 
||--3--2--1--1h2p1-----0--2--1--|-3--2--1--1h2p1-----0--2--1---|| 
    .  .  .            .  .  .    .  .  .            .  .  . 

[Riff 10b (X2)] 
||------------------------------|------------------------------|| 
||o----------------^------------|----------------^------------o|| 
||-----------------3~-----------|----------------3~------------|| 
||------------------------------|------------------------------|| 
||o-5--4--3------------2--4--3--|-5--4--3-----------2--4--3---o|| 
||--3--2--1--0h1p0-----0--2--1--|-3--2--1--0h1p0----0--2--1----|| 
    .  .  .            .  .  .    .  .  .           .  .  . 

[Outro 3] 
|---------------------------------------------| 
|---------------------------------------------| 
|---------------------------------------------| 
|----------------^----------------------------| 
|-5--4--3--------1~--2--4--3--5--4--3---------| 
|-3--2--1--1h2p1-----0--2--1--3--2--1--1h2p1--| 
  .  .  .            .  .  .  .  .  . 

[RIFF 4 (x2)] 

[Riff 11] 
||--------------------------------|--------------------------------|- 
||--------------------------------|--------------------------------|- 
||--------------------------------|--------------------------------|- 
||-------0000------------33334444-|-------0000------------33333333-|- 
||-4--5--22220000-----------------|-4--5--22220000-----------------|- 
||-2--3------333344441111---------|-2--3------333344441111---------|- 
 | .  .                           | .  .                           | 
||--------------------------------|--------------------------------|- 
||--------------------------------|--------------------------------|- 
||--------------------------------|--------------------------------|- 
||-------0000------------33334444-|-------0000------------33333333-|- 
||-4--5--22220000-----------------|-4--5--22220000-----------------|- 
||-2--3------333344441111---------|-2--3------333344441111---------|- 
   .  .                             .  .                            

-|--------------|----------------------------------|- 
-|--------------|----------------------------------|- 
-|--------------|----------------------------------|- 
-|--------------|-------------------------33334444-|- 
-|-4--5--4--5---|----------------------------------|- 
-|-2--3--2--3---|-555522224444555544442222---------|- 
 | .  .  .  .   |                                  | 
-|--------------|----------------------------------|- 
-|--------------|----------------------------------|- 
-|--------------|----------------------------------|- 
-|--------------|-------------------------33334444-|- 
-|-4--5--4--5---|----------------------------------|- 
-|-2--3--2--3---|-555522224444555544442222---------|- 
   .  .  .  . 

-|--------------------------------|------------------------|- 
-|--------------------------------|------------------------|- 
-|--------------------------------|------------------------|- 
-|-------0000------------33333333-|---------------------^--|- 
-|-4--5--22220000-----------------|-3--5--0--1--3--4444-1~-|- 
-|-2--3------333344441111---------|-1--3--0--1--3----------|- 
 | .  .                           | .  .  .  .  .  ....    | 
-|--------------------------------|------------------------|- 
-|--------------------------------|------------------------|- 
-|--------------------------------|------------------------|- 
-|-------0000------------33333333-|---------------------^--|- 
-|-4--5--22220000-----------------|-3--5--0--1--3--4444-1~-|- 
-|-2--3------333344441111---------|-1--3--0--1--3----------|- 
   .  .                             .  .  .  .  .  ....    


-|--------------------------------|--------------------------------|- 
-|--------------------------------|--------------------------------|- 
-|--------------------------------|--------------------------------|- 
-|-------0000------------33334444-|-------0000------------33333333-|- 
-|-4--5--22220000-----------------|-4--5--22220000-----------------|- 
-|-2--3------333344441111---------|-2--3------333344441111---------|- 
 | .  .                           | .  .                           | 
-|--------------------------------|--------------------------------|- 
-|--------------------------------|--------------------------------|- 
-|--------------------------------|--------------------------------|- 
-|-------0000------------33334444-|-------0000------------33333333-|- 
-|-4--5--22220000-----------------|-4--5--22220000-----------------|- 
-|-2--3------333344441111---------|-2--3------333344441111---------|- 
   .  .                             .  . 

-|-------------|---------------------------------------|| 
-|-------------|---------------------------------------|| 
-|-------------|---------------------------------------|| 
-|-------------|---------------------33334444----------|| 
-|-4--5--4--5--|------------------------------2--4--3--|| 
-|-2--3--2--3--|-22224444555522221111---------0--2--1--|| 
 | .  .  .  .  |                              .  .  .   | 
-|-------------|---------------------------------------|| 
-|-------------|---------------------------------------|| 
-|-------------|---------------------------------------|| 
-|-------------|---------------------66667777----------|| 
-|-4--5--4--5--|------------------------------2--4--3--|| 
-|-2--3--2--3--|-55557777888855554444---------0--2--1--|| 
   .  .  .  .                                 .  .  . 

[Riff 1b] 
||----------------------------------|-----------------------------------------|- 
||----------------------------------|-----------------------------------------|- 
||----------------------------------|-----------------------------------------|- 
||-----------------44445555---------|-----------------------------------------|- 
||-3---------------------------4444-|-----------------------------------------|- 
||---4-3-0-33332222--------2222-----|-0-1-2-1-4h5p4-3h4p3-0-1-2-1-4h5p4-3h4p3-|- 
|                                   | . . . . \___/ \___/ . . . . \___/ \___/ | 
||----------------------------------|-----------------------------------------|- 
||----------------------------------|-----------------------------------------|- 
||----------------------------------|-----------------------------------------|- 
||-----------------44445555---------|-----------------------------------------|- 
||-3---------------------------4444-|-----------------------------------------|- 
||---4-3-0-33332222--------2222-----|-0-1-2-1-4h5p4-3h4p3-0-1-2-1-4h5p4-3h4p3-|- 
                                      . . . . \___/ \___/ . . . . \___/ \___/ 

-|---------------------------------|---------------------------------|- 
-|---------------------------------|---------------------------------|- 
-|---------------------------------|---------------------------------|- 
-|-------------44445555------------|---------------------------------|- 
-|-2222----------------222244442222|-------3-4---3-4-3---1-0-3-1-0-1-|- 
-|-----44442222--------------------|-2-1-0-----1-----1-0-------------|- 
 |                                 | . . . . . . . . . . . . . . . . | 
-|---------------------------------|---------------------------------|- 
-|---------------------------------|---------------------------------|- 
-|---------------------------------|---------------------------------|- 
-|-------------44445555------------|---------------------------------|- 
-|-2222----------------222244442222|-------3-4---3-4-3---1-0-3-1-0-1-|- 
-|-----44442222--------------------|-2-1-0-----1-----1-0-------------|- 
                                     . . . . . . . . . . . . . . . . 

-|--------------------------|| 
-|--------------------------|| 
-|--------------------------|| 
-|-------------777788885555-|| 
-|-2222---------------------|| 
-|-----33332222-------------|| 
 |                           | 
-|--------------------------|| 
-|--------------------------|| 
-|--------------------------|| 
-|-------------444455552222-|| 
-|-2222---------------------|| 
-|-----33332222-------------|| 

[Riff 12] 
|----------------------------[x2]-|----------------------------[x2]-| 
|---------------------------------|---------------------------------| 
|---------------------------------|---------------------------------| 
|---------------------------------|---------------------------------| 
|---------1-0-1-2-----------------|---------5-----------------------| 
|-5-4-3-0---------0-1-2-0-3-2-1-2-|-5-4-3-0---0-5-6-0-1-2-0-1-0-2-0-| 
  . . . . . . . . . . . . . . . .   . . . . . . . . . . . . . . . . 

[Riff 13] 
|--------------------[x3]-|---------------------------------|- 
|-------------------------|---------------------------------|- 
|-------------------------|---------------------------------|- 
|----------3--------------|---------------------------------|- 
|-5--4--3--1--5--3--4--3--|-5-4-----5-4---------------------|- 
|-3--2--1-----3--1--2--1--|-----4-0-----4-0-6-5-3-0-5-4-3-0-|- 
  .  .  .     .  .  .  .    . . . . . . . . . . . . . . . . 

-|-------------------------|-------------------------| 
-|-------------------------|-------------------------| 
-|-------------------------|-------------------------| 
-|----------3--------------|----------3--------------| 
-|-5--4--3--1--5--3--4--3--|-5--4--3--1--5--3--4--3--| 
-|-3--2--1-----3--1--2--1--|-3--2--1-----3--1--2--1--| 
   .  .  .     .  .  .  .    .  .  .     .  .  .  . 

[Riff 14] 
||--------------------------------------[x2]-||-------------------------| 
||o-----------------------------------------o||-------------------------| 
||-------------------------------------------||-------------------------| 
||-----------3-------------------------------||----------3--------------| 
||o-5--4--3--1--5--3--4--3--2-1-------------o||-5--4--3--1--5--3--4--3--| 
||--3--2--1-----3--1--2--1------2-1-3-2-0-1--||-3--2--1-----3--1--2--1--| 
    .  .  .     .  .  .  .  . . . . . . . .     .  .  .     .  .  .  . 

[Riff 15] 
||------------------------------[x3]-||-----------------------------| 
||o---------------------------------o||-----------------------------| 
||-----------------------------------||-----------------------------| 
||-----------------------------------||-----------------------------| 
||o-----------------2-0---------2-1-o||-----------------6--5--4--5--| 
||--3-2-5-0-3-2-5-0-----3-2-4-3------||-3-2-5-0-3-2-5-0-4--3--2--3--| 
    . . . . . . . . . . . . . . . .     . . . . . . . . .  .  .  . 

END OF SONG
Добавлено: 03.06.2013
Другие материалы по этой песне:

Страница создана 03.06.2013
http://primanota.ru/disgorge/demise-of-the-trinity-chords.htm
Привет, Гость.
Предлагаем пройти революционный курс по гитаре.
Подарок от PrimaNota.Ru, забирай!