PrimaNota.ru - самый крупный в мире бесплатный архив песенных текстов, аккордов, табулатур и нот


Disgorge - Atonement - таба, видео

Регистрация Запомнить меня
Войти через:  Facebook Google Twitter Vk Yandex Mail.ru

Disgorge - Atonement - таба, видео

Печатать
Просмотров: 187
Уроки эстрадного вокала в Санкт-Петербурге
--- DISGORGE(US) ---
                                  "Atonement"
                     From album: "Cranial Impalement"


                            TABULATURE LEGEND:
                   " - tremolo             h - hammer on
                   ~ - vibrato             \ - slide down
                   p - pull off            / - slide down
                  tr - tremolo picking     ^ - pinch harmonics
                   = - sustained note      b - bend string
                p.m. - palm muting         t - tapping

TUNING: C# [C#,F#,B,e,g#,c#]

Its very hard to make absolutly correct tabulature of any Disgorge's song.
So its only my interpritation of this song. Also check out powertab
version... Pick notes very fast.

[Riff 1]
||-------------------------------------------------|-------------------|
||-------------------------------------------------|-------------------|
||-------------------------------------------------|-------------------|
||-------------------------------------------------|-------------------|
||-----4-3---------------------------4-3-5555-5555-|-----4-3-----------|
||-3-2-----7777-7777-3-2-0-1-0-2-3-2---------------|-3-2-----7777-7777-|
   . . . .           . . . . . . . . . .             . . . .

-------------------------|-----------------||
-------------------------|-----------------||
-------------------------|-----------------||
-------------------------|-----------------||
-4----3----5-4-3-2-------|---------4-3-----||
-2----1------------------|-0-1-3-2-----4-3-||
 .    .    . . . .         . . . . . . . .

[Riff 2 (x4)]
||-----------------|-----------------||
||-----------------|-----------------||
||-----------------|-----------------||
||-----------------|-----------------||
||-6-5-3-2-3-2-3-2-|---------4-3-----||
||-4-3-1-0-1-0-1-0-|-0-1-3-2-----4-3-||
   . . . . . . . .   . . . . . . . .

[Riff 3 (x10)]
||-------------------------||
||-------------------------||
||-------------------------||
||-------5--4--------------||
||-4--3--5--4--4--3--2--3--||
||-2--1--3--2--2--1--0--1--||
   .  .        .  .  .  .

[Outro 1]
||----------------------------------|-------------------------||
||----------------------------------|-------------------------||
||----------------------------------|-------------------------||
||----------------------------------|-------------------------||
||-2222222266665555----66665555-----|-------------------4--3--||
||-----------------0000--------3333-|-3-2-5-4-6666-6666-2--1--||
                                      . . . .           .  .
[Riff 4 (x2)]
||------------------------------------------||
||------------------------------------------||
||------------------------------------------||
||------------------------------------------||
||---------66665555----66665555-------------||
||-77773333--------0000--------333366663333-||

[Riff 5]
||--------------------[x4]-|--------------------------|
||-------------------------|--------------------------|
||-------------------------|---------------------^----|
||-------------------------|---------------------3~---|
||-4--3--5--4--4--3--2--3--|-4--3--5--4--4--3--2------|
||-2--1--3--2--2--1--0--1--|-2--1--3--2--2--1--0------|
   .  .  .  .  .  .  .  .     .  .  .  .  .  .  .

-|--------------------[x3]-||
-|-------------------------||
-|-------------------------||
-|-------------------------||
-|-4--3--5--4--4--3--2--3--||
-|-2--1--3--2--2--1--0--1--||
   .  .  .  .  .  .  .  .

[Riff 6 (x2)]
||-------------------------------------------------|-------------------|
||-------------------------------------------------|-------------------|
||-------------------------------------------------|-------------------|
||-------------------------------------------------|-------------------|
||-----4-3---------------------------4-3-5555-5555-|-----4-3-----------|
||-3-2-----7777-7777-3-2-0-1-0-2-3-2---------------|-3-2-----7777-7777-|
   . . . .           . . . . . . . . . .             . . . .

[ending 1]
-|---------------------------------|
-|---------------------------------|
-|---------------------------------|
-|---------------------------------|
-|---------4-3-------------4-3-----|
-|-0-1-3-2-----4-3-0-1-3-2-----4-3-|
   . . . . . . . . . . . . . . . .

[ending 2]
-|---------------------------------|---------------------------|
-|---------------------------------|---------------------------|
-|---------------------------------|---------------------------|
-|---------------------------------|-4-3-----------------------|
-|---------4-3-------------4-0-4-3-|-----4-3---------4444-4444-|
-|-0-1-3-2-----4-3-0-1-3-2---------|---------0-1-3-2-----------|
   . . . . . . . . . . . . . . . .   . . . . . . . .

[Riff 7 (x3)]
||---------------------------------|-------------------------||
||---------------------------------|-------------------------||
||---------------------------------|-------------------------||
||---------------------------------|-4-3---------------------||
||---------4-3-------------4-0-4-3-|-----4-3---------4-3-----||
||-0-1-3-2-----4-3-0-1-3-2---------|---------0-1-3-2-----3-4-||
   . . . . . . . . . . . . . . . .   . . . . . . . . . . . .

[Riff 8 (x4)]
||---------------------------------|----------------------------------||
||-----------------------------^---|----------------------------------||
||-----------------------------3~--|----------------------------------||
||-5---4---8---7---5---4---2-------|-5---4---8---7---5---4--------3---||
||-3---2---6---5---3---2---2-------|-3---2---6---5---3---2---4-5--3---||
||-3---2---6---5---3---2---0-------|-3---2---6---5---3---2---2-3--1---||
   .   .   .   .   .   .   .         .   .   .   .   .   .   . .

[Outro 2]
||---------------------------------|-----------------||
||-----------------------------^---|-----------------||
||-----------------------------3~--|-----------------||
||-5---4---8---7---5---4---2-------|-6--5--8--7------||
||-3---2---6---5---3---2---2-------|-4--3--6--5------||
||-3---2---6---5---3---2---0-------|-4--3--6--5------||
   .   .   .   .   .   .   .         .  .  .  .

[Riff 9 (x4)]
||---------------------------------------||
||---------------------------------------||
||---------------5===-4===---------------||
||-2======--0===-3===-2===----------3===-||
||-2======--0===-3===-2===-3-4-2-3--3===-||
||-0======--0===-----------1-2-0-1-------||
                           . . . .

[Riff 10]
||----------------------------[x4]-|---------------------------------|
||---------------------------------|---------------------------------|
||---------------------------------|---------------------------------|
||---------------------------------|-----------------------------^---|
||-6-5-3-2-3-2-3-2---------4-3-----|-6-5-3-2-3-2---6-5-----------3~--|
||-4-3-1-0-1-0-1-0-0-1-3-2-----4-3-|-4-3-1-0-1-0-1-----6-5-4-0-1-----|
   . . . . . . . . . . . . . . . .   . . . . . . . . . . . . . .

-|---------------------------------|--------------------------------|
-|---------------------------------|--------------------------------|
-|---------------------------------|--------------------------------|
-|---------------------------------|-----------------------------^--|
-|-----------------3-4-----8-7-----|-6-5-3-2-3-2---6-5-----------3~-|
-|-4-3-0-1-2-1-3-2-----6-5-----6-5-|-4-3-1-0-1-0-1-----6-5-4-0-1----|
   . . . . . . . . . . . . . . . .   . . . . . . . . . . . . . .

-----------------|--------------------------------||
-----------------|--------------------------------||
-----------------|--------------------------------||
-----------------|-----------------------------^--||
-8-7-------------|-6-5-3-2-3-2---6-5-----------3~-||
-----9-0-8-7-6-5-|-4-3-1-0-1-0-1-----6-5-4-0-1----||
 . . . . . . . .   . . . . . . . . . . . . . .

[Riff 11]
||------------------------------------------------|------------------|
||------------------------------------------------|------------------|
||------------------------------------------------|------------------|
||------------------------------------------------|------------------|
||-33333333-2-1-----55555555-4-5-------------4444-|-33333333-2-1-----|
||--------------2-1--------------4-3-0-1-2-1------|--------------2-1-|
            . . . .          . . . . . . . .

----------------------------------------------------------------||
----------------------------------------------------------------||
----------------------------------------------------------------||
----------------------------------------------------------------||
-55555555-4-5-----2--4--5--4--33333333-2-1-----55555555-4-5-----||
--------------4-3-0--2--3--2---------------2-1--------------4-3-||
          . . . . .  .  .  .           . . . .          . . . .

[Outro 3]
||---------|-----------------|------------------||
||---------|-----------------|------------------||
||---------|-----------------|------------------||
||---------|-----------------|------------------||
||---------|-2---------------|-------2-1--------||
||-0-1-2-1-|-0---------------|-0-3-2-----0-2-1--||
|  . . . . | .               | . . . . . . . .   |
||---------|-----------------|------------------||
||---------|-----------------|------------------||
||---------|-----------------|------------------||
||---------|-----------------|------------------||
||---------|-------2-1-------|-------2-1--------||
||-0-1-2-1-|-0-3-2-----0-2-1-|-0-3-2-----0-2-1--||
   . . . .   . . . . . . . .   . . . . . . . .

[Riff 12]
||-------------------------|----------------------------------|
||-------------------------|----------------------------------|
||-------------------------|----------------------------------|
||----6--7--6--------------|----------------------------------|
||-2--4--7--6--2--4--5--4--|-----------------3-4-----8-7------|
||-0--4--5--4--0--2--3--2--|-4-3-0-1-2-1-3-2-----6-5-----6-5--|
   .  .  .  .  .  .  .  .    . . . . . . . . . . . . . . . .

-|-------------------------|--------------------[x2]-||
-|-------------------------|-------------------------||
-|-------------------------|-------------------------||
-|----6--7--6--------------|----6--7--6-----4--5--4--||
-|-2--4--7--6--2--4--5--4--|-2--4--7--4--2--2--3--2--||
-|-0--4--5--4--0--2--3--2--|-0--4--5--4--0--2--3--2--||
   .  .  .  .  .  .  .  .    .  .  .  .  .  .  .  .

[Riff 13]
||--------------------------------|----------------------------------|
||--------------------------------|----------------------------------|
||--------------------------------|----------------------------------|
||-----------------------------^--|----------------------------------|
||-6-5-3-2-3-2---6-5-----------3~-|-----------------3-4-----8-7------|
||-4-3-1-0-1-0-1-----6-5-4-0-1----|-4-3-0-1-2-1-3-2-----6-5-----6-5--|
   . . . . . . . . . . . . . .      . . . . . . . . . . . . . . . .

---------------------------------|-----------------------------------------||
---------------------------------|-----------------------------------------||
---------------------------------|-----------------------------------------||
---------------------------------|-----------------4-3---------------------||
-8-7---------------------4-3-----|---------4-0-4-3-----4-3---------4-3-----||
-----9-0-8-7-6-5-0-1-3-2-----4-3-|-0-1-3-2-----------------0-1-3-2-----4-3-||
 . . . . . . . . . . . . . . . .   . . . . . . . . . . . . . . . . . . . .

[RIFF 8 (x3)]

[Ending]
||---------------------------------|---------------------||
||-----------------------------^---|---------------------||
||-----------------------------3~--|---------------------||
||-5---4---8---7---5---4---2-------|---------^-----------||
||-3---2---6---5---3---2---2-------|---------5~-2--5--4--||
||-3---2---6---5---3---2---0-------|-0-1-2-1----0--3--2--||
   .   .   .   .   .   .   .        . . . . .   .  .  .

SUPPORT UNDERGROUND!!!

END OF SONG
Добавлено: 02.07.2013
Другие материалы по этой песне:

Страница создана 02.07.2013
http://primanota.ru/disgorge/atonement-chords.htm
Привет, Гость.
Предлагаем пройти революционный курс по гитаре.
Подарок от PrimaNota.Ru, забирай!