PrimaNota.ru - самый крупный в мире бесплатный архив песенных текстов, аккордов, табулатур и нот


Disco Inferno - Entracte - бас-таба, видео

Регистрация Запомнить меня
Войти через:  Facebook Google Twitter Vk Yandex Mail.ru

Disco Inferno - Entracte - бас-таба, видео

Печатать
Просмотров: 110
-------------------------------------------------------------------------------
                             ENTR'ACTE - DISCO INFERNO
-------------------------------------------------------------------------------
Tabbed by: Tyran
E-mail: caitsullivan57@gmail.com

Tuning:EADG
                                    
G|-8-8-7-7-5-5-1-1-----------------|
D|-----------------3-3-1-1---------|
A|-------------------------4-4-1-3-|
E|---------------------------------|
  A
G|-----0-------------0-------------0---------------------3-----|
D|-------1-3-----------1-3-----------1-3-------------7---------|
A|-3-3-------1-3-3-3-------1-3-3-3-------1-3-3-3-------1---2-3-|x2
E|------------------------------------------------5------------|
  B
G|-----0-------------0-------------0-------------------3-----|
D|-------1-3-----------1-3-----------1-3-----------7---------|
A|-3-3-------1-3-3-3-------1-3-3-3-------1-3-3-3-----1---2-3-|
E|-----------------------------------------------5-----------|

G|-----0-------------0-------------0---------------3-----------------------------|
D|-------1-3-----------1-3-----------1-3-------7-------3-3-2-0---------------0---|
A|-3-3-------1-3-3-3-------1-3-3-3-------1-3-----1---3---------3-1-1-1-0---0---3-|
E|-------------------------------------------5---------------------------3-------|

G|---------------------------------------------------------------------------------|
D|-----------------------0---3-3-3-2-0---------------------------------------------|
A|-3-3-3-3-3-3-3-3-3-3-3---3-----------3-1-1-1-0---0---3-3-3-------------1-2-1-0-3-|
E|-----------------------------------------------3---3-------0-1-2-3-3-3-----------|
  C
G|---------------------------|
D|---------------------------|
A|----FOR C REPEAT SECTION A-|
E|---------------------------|
  D
G|------------------------------------------------------------3-----|
D|--FOR D REPEAT A THE SECOND TIME ROUND END WITH: -------7-------3-|
A|--------------------------------------------------3-3-----1---3---|
E|------------------------------------------------------5-----------|
  E
G|-------------------------------------------------------------------------|
D|-3-2-0---------------0-----------------------0---3-3-3-2-0---------------|
A|-------3-1-1-1-0---0---3-3-3-3-3-3-3-3-3-3-3---3-----------3-1-1-1-0---3-|
E|-----------------3---------------------------------------------------3---|

===============================================================================
Добавлено: 29.07.2015
Вам также может быть интересно:
Другие материалы по этой песне:
  • Аккорды и текст

Страница создана 29.07.2015
http://primanota.ru/disco-inferno/entracte-chords.htm
Привет, Гость.
Предлагаем пройти революционный курс по гитаре.
Подарок от PrimaNota.Ru, забирай!