PrimaNota.ru - самый крупный в мире бесплатный архив песенных текстов, аккордов, табулатур и нот


Disco Inferno - Cant See Through It - таба, видео

Регистрация Запомнить меня
Войти через:  Facebook Google Twitter Vk Yandex Mail.ru

Disco Inferno - Cant See Through It - таба, видео

Печатать
Просмотров: 62
Disco Inferno
Can't See Through It
Technicolour 

Tabbed by: Saviano P.



Intro/Verse: 
               C
e|-0-0-0--||---0-------0-0-0--|
B|-1-1/3--||---1-------1-1/3--|
G|-0-0-0--||---0-(x12)-0-0-0--| 
D|-2-2/4--||---2-------2-2/4--| 
A|-3-0-0--||---3-------0-0-0--|
E|--------||------------------|

 then: 
e|-0-0-0----0------|
B|-1-1/3----1------|
G|-0-0-0----0------| 
D|-2-2/4----2------|
A|-3-0-0----3------|
E|-----------------|

e|----------------------------|
B|-0-1-3-1--0--1--0--1--0-----|
G|-0-0-0-0--0--0--0--0--0---0-| In this part you can also just play the notes on the B string and the 
D|-2-2-2-2--2--2--2--2--2-----| two notes at the end with a 2nd guitar strumming a C chord
A|-3-3-3-3--3--3--3--3--3-3---|
E|----------------------------|

The entire song is just these three parts with C almost constantly being strummed
Добавлено: 02.06.2016
Вам также может быть интересно:
Другие материалы по этой песне:
  • Аккорды и текст

Страница создана 02.06.2016
http://primanota.ru/disco-inferno/cant-see-through-it-chords.htm
Привет, Гость.
Предлагаем пройти революционный курс по гитаре.
Подарок от PrimaNota.Ru, забирай!