PrimaNota.ru - самый крупный в мире бесплатный архив песенных текстов, аккордов, табулатур и нот


Disco Inferno The Musical - Overture - бас-таба, видео

Регистрация Запомнить меня
Войти через:  Facebook Google Twitter Vk Yandex Mail.ru

Disco Inferno The Musical - Overture - бас-таба, видео

Печатать
Просмотров: 32
-------------------------------------------------------------------------------
                             OVERTURE - Disco Inferno
-------------------------------------------------------------------------------
Tabbed by: Cait :)
E-mail: caitsullivan57@gmail.com

Tuning: Standard EADG

G|----------------------------------------------|
D|----------------------5----1-3----------------|
A|--3---3-----x4----3-3----3-----1-3-3--3---x2--|
E|----------------------------------------------|


G|-----------------------------------------------------|
D|--3--2--0----------------0---------------------------|
A|-----------3--1-1-0----0---3-3-3-3-3-3-3-3-3-3---x2--|
E|---------------------3-------------------------------|


G|-----------------------------------------------------------------------------------|
D|------5----1-3-------5---1-3-------5---1-3---------------5---1-3-------5---1-3-----|
A|--3-3---3------1-3-3---3-----1-3-3---3-----1-3-3-3-3-3-3---3-----1-3-3---3-----1-3-|
E|-----------------------------------------------------------------------------------|

G|-------------------------------------------------------------|
D|---5---1-3-------5---1-3-------------------------------------|
A|-3---3-----1-3-3---3-----1-3-3-3-3-3-3-3-3-3-3-3-3-3-3-3---3-|
E|-------------------------------------------------------------|
Добавлено: 12.07.2015
Другие материалы по этой песне:
  • Аккорды и текст

Страница создана 12.07.2015
http://primanota.ru/disco-inferno-musical/overture-chords.htm
Привет, Гость.
Предлагаем пройти революционный курс по гитаре.
Подарок от PrimaNota.Ru, забирай!