PrimaNota.ru - самый крупный в мире бесплатный архив песенных текстов, аккордов, табулатур и нот


Disco Inferno The Musical - Megamix - бас-таба, видео

Регистрация Запомнить меня
Войти через:  Facebook Google Twitter Vk Yandex Mail.ru

Disco Inferno The Musical - Megamix - бас-таба, видео

Печатать
Просмотров: 53
-------------------------------------------------------------------------------
                            MEGAMIX - DISCO INFERNO: THE MUSICAL
-------------------------------------------------------------------------------
Tabbed by: Tyran
E-mail: caitsullivan57@gmail.com

Tuning:EADG
  A (BAR 4)
G|-------------------------------------------------------------------------------------------------------|
D|-3-2-0---------------0-----------------------0---3-3-3-2-0---------------------------------------------|
A|-------3-1-1-1-0---0---3-3-3-3-3-3-3-3-3-3-3---3-----------3-1-1-1-0---0---3-3-3-------------1-3-1-0-3-|
E|-----------------3---------------------------------------------------3---3-------0-1-2-3-3-3-----------|
  B (BAR 12)
G|-----0---------------0----------------0---------------2---3----------------------------2---3-----|
D|---------1-3-------------1-3--------------1-3--------------------------------------------------3-|
A|-3-3---3-----1-3-3-3---3------1-3-3-3---3-----3-3-3-0---1---2-3--X4-ON 4TH END WITH:-0---1---3---|
E|-------------------------------------------------------------------------------------------------|
  C (BAR 28)
G|-------------------------------------------------------------------------------|
D|-3-2-0---------------0-----------------------0---3-3-3-2-----------------------|
A|-------3-1-1-1-0---0---3-3-3-3-3-3-3-3-3-3-3---3---------0-3-1-1-1-0---3-1-----|
E|-----------------3---------------------------------------------------3-----4-1-|
  D (BAR 35)
G|-------------------------------------------------------------------------|
D|-------------------------------------------------------------------------|
A|-1-1-3-3---------1-1-3-3---------1-1-3-3---------1-1-1-1-3-3-3-3---------|
E|---------1-1-1-1---------1-1-1-1---------1-1-1-1-----------------1-1-1-1-|
  E (BAR 44)
G|-------------------------------------------------------------------------------------------------|
D|-3-3-3-3---3---3-3-3-3-3-3-3---3---3-3-3-3-3-3-3---3---3-3-3-3-3-3-3---3---3-3-3-----------------|
A|---------3---3---------------3---3---------------3---3---------------3---3-----------------------|
E|---------------------------------------------------------------------------------1-3-3-4-1-4-4-3-|
  F (BAR 54)
G|-----------------------------------------------2------------------|
D|-----------------------------0-0-0-0-0-0---6----------------------|
A|---3-3-3-3-3---------------------------------0---1-1-1-1-1-1-1-1--|
E|-1-----------1-1-1-1-1-1-1-1-------------4------------------------|


| /  slide up
| \  slide down
| h  hammer-on
| p  pull-off
| ~  vibrato
| +  harmonic
| x  Mute note
===============================================================================
Добавлено: 12.07.2015
Вам также может быть интересно:
Другие материалы по этой песне:
  • Аккорды и текст

Страница создана 12.07.2015
http://primanota.ru/disco-inferno-musical/megamix-chords.htm
Привет, Гость.
Предлагаем пройти революционный курс по гитаре.
Подарок от PrimaNota.Ru, забирай!