PrimaNota.ru - самый крупный в мире бесплатный архив песенных текстов, аккордов, табулатур и нот


Disco Inferno The Musical - Groove Medley - бас-таба, видео

Регистрация Запомнить меня
Войти через:  Facebook Google Twitter Vk Yandex Mail.ru

Disco Inferno The Musical - Groove Medley - бас-таба, видео

Печатать
Просмотров: 28
-------------------------------------------------------------------------------
                             GROOVE MEDLEY - DISCO INFERNO
-------------------------------------------------------------------------------
Tabbed by: Tyran
E-mail: caitsullivan57@gmail.com

Tuning:EADG

G|--------------9-------7-------------------------9-------7-------|
D|------------------7---------------------------------7-----------|
A|-2-2-2-2--7-7-------4-------------0-1-1-2-4-2-7-------4---------|
E|----------------4-------4-3-1-4-4-----------------4-------4-3-1-|

G|-------------------9-------7-------------------------9-------7-----------------------|
D|-----------------------7---------------------------------7---------------------------|
A|-----0-1-1-2-4-2-7-------4-------------0-1-1-2-4-2-7-------4-------------0-1-1-2-4-2-|
E|-4-4-----------------4-------4-3-1-4-4-----------------4-------4-3-1-4-4-------------|

G|---------9-----------5-------------------1-4-6-4-3-5-6-----6-4-1-----------1-----|
D|---------------------------------7---2-2-------------------------4-2-2-2-2---2-1-|
A|-7-7-7-7---7-3-3-3-3---3-------------------------------4-4-----------------------|
E|-------------------------5-5-5-5---5---------------------------------------------|

G|-6-----6-4-1-4-4-----6-4-1----6-----6-4-1----------------------------------|
D|-----------------2-2--------2-------------4-2-2-2-2------------------------|
A|---4-4--------------------------4-4-----------------4-2-0-0-0-0--0---2-2-2-|
E|----------------------------------------------------------------2--2-------|

G|---------9-----------5-------------------1-4-6-4-1-4---------9-----------5---------------|
D|---------------------------------7---2-2---------------------------------------------7---|
A|-7-7-7-7---7-3-3-3-3---3-----------------------------7-7-7-7---7-3-3-3-3---3-------------|
E|-------------------------5-5-5-5---5-----------------------------------------5-5-5-5---5-|

G|-----1-4-6-4-3-5-6-----6-4-1-----------1-----6-----6-4-1-4-4-----6-4-1---6-----6-4-1----|
D|-2-2-------------------------4-2-2-2-2---2-1-----------------2-2-------2-------------4--|
A|-------------------4-4-------------------------4-4-------------------------4-4----------|
E|----------------------------------------------------------------------------------------| 

| /  slide up
| \  slide down
| h  hammer-on
| p  pull-off
| ~  vibrato
| +  harmonic
| x  Mute note
===============================================================================
Добавлено: 12.07.2015
Другие материалы по этой песне:
  • Аккорды и текст

Страница создана 12.07.2015
http://primanota.ru/disco-inferno-musical/groove-medley-chords.htm
Привет, Гость.
Предлагаем пройти революционный курс по гитаре.
Подарок от PrimaNota.Ru, забирай!