PrimaNota.ru - самый крупный в мире бесплатный архив песенных текстов, аккордов, табулатур и нот


Disco Ensemble - Threat Letter Typewriter - таба, видео

Регистрация Запомнить меня
Войти через:  Facebook Google Twitter Vk Yandex Mail.ru

Disco Ensemble - Threat Letter Typewriter - таба, видео

Печатать
Просмотров: 125
Уроки эстрадного вокала в Санкт-Петербурге
-----------------------------------------------------------------------------
                  THREAT LETTER TYPEWRITER - Disco Ensemble
-----------------------------------------------------------------------------
Tabbed by: Ihpar_CH
E-mail: raphiinglin@hotmail.com

Tuning: Standard

Thats the solo of the song (~ 2:06 - 2:53). Hope you enjoy it.

Pls rate and comment  ;).



e|-5---------------5----------------5-------------------|
B|----6-----8---------6-----8---------6-----8-----------|
G|-------7-----5---------7-----5---------7-----5--7-----|
D|------------------------------------------------------|   x3
A|------------------------------------------------------|
E|------------------------------------------------------|

e|-------------------------5555-------------------------|
B|-6-----6-----8-----8-----------------8888-------------|
G|----7-----7-----7-----7--------7--7--------7--7-------|
D|------------------------------------------------------|
A|------------------------------------------------------|
E|------------------------------------------------------|


e|----------------------------------------------------------------|
B|-15----------13------15----------14------15----------13---------|
G|-----14------------------14------------------14-----------------|
D|---------15------12----------15------12----------15------12--15-|  x2 
A|----------------------------------------------------------------|
E|----------------------------------------------------------------|

  (3rd part is a littel diffrent in the end)

e|----------------------------------------------------------------|
B|-15----------13------15----------14------15----------13--15-----|
G|-----14------------------14------------------14-----------------|
D|---------15------12----------15------12----------15----------15-|
A|----------------------------------------------------------------|
E|----------------------------------------------------------------|

e|-------------------------------------------------17------17-----------| 
B|-----------------13------13------15------15----------------------15\--|
G|-14------14-----------------------------------------------------------|
D|-----15------15------15------15------15------15------15------15-------|
A|----------------------------------------------------------------------| 
E|----------------------------------------------------------------------|

break (~2:30 - 2:40)

then:

e|-----------------------------------------------------------------|
B|-----------------------------------------------------------------|
G|-----------------------------------------------------------------|  
D|-----------------------------------------------------------------|
A|-5-5-5-5-5-5-------------------------------------------------3-3-|  x2
E|-------------0-0-1-1-1-1-1-1-5-5-3-3-3-3-3-3-5-5-6-6-6-6-6-6-----|

e|-------|
B|-5\----|
G|-------|
D|-------|
A|-------|
E|-------|



************************************

| /   slide up
| \   slide down
| h   hammer-on
| p   pull-off
| ~   vibrato
| +   harmonic
| x   Mute note
| b   Bend
| pb  Pre-bend
| br  Bend release
| pbr Pre-bend release
| brb Bend release bend

************************************
Добавлено: 15.10.2013
Вам также может быть интересно:
Другие материалы по этой песне:
  • Аккорды и текст

Страница создана 23.08.2013
http://primanota.ru/disco-ensemble/threat-letter-typewriter-chords.htm
Привет, Гость.
Предлагаем пройти революционный курс по гитаре.
Подарок от PrimaNota.Ru, забирай!