PrimaNota.ru - самый крупный в мире бесплатный архив песенных текстов, аккордов, табулатур и нот


Disco Ensemble - So Cold - бас-таба, видео

Регистрация Запомнить меня
Войти через:  Facebook Google Twitter Vk Yandex Mail.ru

Disco Ensemble - So Cold - бас-таба, видео

Печатать
Просмотров: 141
Уроки эстрадного вокала в Санкт-Петербурге
Disco Ensemble - So cold

Tabbed by gab|503

Drop D tuning (DADG)

Intro:

0.09
|---------|
|---------|
|--5~-----|
|---------|

0.20
G|---------------------------------|
D|--12-(x32)-10-(x28)--------------|
A|--------------------12-12-12-12--|
D|---------------------------------| x2

0.43
G|---------------------------------------|
D|----------10-(x24)---------7-7---------|
A|--5-(x32)--------------7-7-----7-7-----|
D|-------------------7-7-------------7---|

Verse:

1.05
G|--------------------------------------|
D|--12-(x32)-10-(x24)---------7-7-------|
A|------------------------7-7-----7-7---|
D|--------------------7-7---------------|

Chorus:

|---------------------------------------------------------------------------|
|---------------------------------------------------------------------------|
|--10-10-10-10-10-10-10-10-8-8-8-8-8-8-8-8-0-0-0-0-0-0-0-0-5-5-5-5-5-5-5-5--|
|---------------------------------------------------------------------------| x3

|---------------------------------------------------------------------------|
|---------------------------------------------------------------------------|
|--10-10-10-10-10-10-10-10-8-8-8-8-8-8-8-8-0-0-0-0-0-0-0-0-5-5-5-5-5-5-5-3--|
|---------------------------------------------------------------------------|

Verse

G|-----------------------------------------|
D|--12-(x28)--pause--10-(x28)--------------|
A|----------------------------12-12-12-12--|
D|-----------------------------------------|

G|--------------------------------------|
D|--12-(x32)-10-(x24)---------7-7-------|
A|------------------------7-7-----7-7---|
D|--------------------7-7---------------|

Chorus

|---------------------------------------------------------------------------|
|---------------------------------------------------------------------------|
|--10-10-10-10-10-10-10-10-8-8-8-8-8-8-8-8-0-0-0-0-0-0-0-0-5-5-5-5-5-5-5-5--|
|---------------------------------------------------------------------------| x3

|----------------------------------------------|
|----------------------------------------------|
|--10-10-10-10-10-10-10-10-8-8-8-8-8-8-8-8-0---|
|----------------------------------------------|

Solo:

G|------------------------------------------------------------------------------------|
D|----------------------------------10~---12-(x32)-14-(x32)---------------------------|
A|--5~-------3~-------5~-------8~---------------------------8-(x32)-10(x16)-12-(x16)--|
D|------------------------------------------------------------------------------------|
                                          16th notes - fast picking

Break:

2.58
|------------------------------------------------------------------|
|-----------------------------------------------------------3-2-0--|
|--3-3-3-3-3-3-3-3-3-3-3-3-3-3-3-3-5-5-5-5-5-5-5-5-5-5-5-5-5-------|
|------------------------------------------------------------------|

|-------------------------------------------------------------------|
|-------------------------------------------------------------------|
|--3-3-3-3-3-3-3-3-3-3-3-3-3-3-3-3-12-12-12-12-12-12-12-12-12-12~---|
|-------------------------------------------------------------------|

Instrumental Chorus: play 2 rounds of the normal Chorus

Alternate chorus - Outro:

|-----------------------------------------------------------------------------------|
|--8-8-8-8-8-8-8-8-10-10-10-10-10-10-10-10------------------------------------------|
|------------------------------------------12-12-12-12-12-12-12-12-5-5-5-5-5-5-5-5--|
|-----------------------------------------------------------------------------------|

|-------------------------------------------------------------------------------------------|
|--8-8-8-8-8-8-8-8-10-10-10-10-10-10-10-10-------------------------12-12-12-12-12-12-12-12--|
|------------------------------------------12-12-12-12-12-12-12-12--------------------------|
|-------------------------------------------------------------------------------------------|

|-------------------------------------------------------------------|
|-------------------------------------------------------------------|
|--1-1-1-1-1-1-1-1-3-3-3-3-3-3-3-3-0-0-0-0-0-0-0-0-5-5-5-5-5-5-5-5--|
|-------------------------------------------------------------------| x2

|---------|
|---------|
|---------|
|--0~-----|

Have fun my friends!
Добавлено: 18.05.2012
Другие материалы по этой песне:

Страница создана 03.03.2012
http://primanota.ru/disco-ensemble/so-cold-chords.htm
Привет, Гость.
Предлагаем пройти революционный курс по гитаре.
Подарок от PrimaNota.Ru, забирай!