PrimaNota.ru - самый крупный в мире бесплатный архив песенных текстов, аккордов, табулатур и нот


Disco Ensemble - Sleep On The Wheel - таба, бас-таба, видео

Регистрация Запомнить меня
Войти через:  Facebook Google Twitter Vk Yandex Mail.ru

Disco Ensemble - Sleep On The Wheel - таба, бас-таба, видео

Печатать
Просмотров: 93
					DISCO ENSEMBLE: SLEEP ON THE WHEEL

tuning: DADGBE


1.Intro
------------------------|------------------------|------------------------|------------------------|
------------------------|------------------------|------------------------|------------------------|
17-------\--------------|------------------------|20----------\-----------|------------------------|
18-------\--------------|------------------------|17----------\-----------|------------------------|
------------------------|------------------------|------------------------|------------------------|
------------------------|------------------------|------------------------|------------------------|
Volume swells wirt delay


Verse (bass)

Fm					    P.H.  Ab			   C#
------------------------|-------------------5----|------------------------|------------------------|
------------------------|------------------------|------------------------|------------------------|
------------------------|------------------------|------------------------|4-----------------------|
3-----------------------|------------------------|6-----------------------|------------------------|
tremolo + distortion

Verse (guitar)
------------------------|------------------------|------------------------|------------------------|
------------------------|------------------------|------------------------|------------------------|
------------------------|------------------------|------------------------|13----13----13----13----|x2
18-11-18-11-18-11-18-11-|18-11-18-11-18-11-18-11-|18-11-18-11-18-11-18-11-|---11----11----11----11-|
------------------------|------------------------|------------------------|------------------------|
------------------------|------------------------|------------------------|------------------------|
PM_________________________________________________________________________________________________
reverb


Pre-chorus
------------------------|------------------------|------------------------|------------------------|
------------------------|------------------------|------------------------|------------------------|
------------------------|------------------------|------------------------|------------------------|
5--5--5--5--5--5--5--5--|5--5--5--5--5--5--5--5--|3--3--3--3--3--3--3--3--|5--5--5--5--6--6--6--6--|
6--6--6--6--6--6--6--6--|6--6--6--6--6--6--6--6--|4--4--4--4--4--4--4--4--|4--4--4--4--4--4--4--4--|
------------------------|------------------------|------------------------|------------------------|

------------------------|------------------------|------------------------|------------------------|
------------------------|------------------------|------------------------|------------------------|
------------------------|------------------------|------------------------|0--0--0--0--0--0--0--0--|
8--8--8--8--8--8--8--8--|8--8--8--8--8--8--8--8--|5--5--5--5--5--5--5--5--|5--5--5--5--5--5--5--5--|
6--6--6--6--6--6--6--6--|6--6--6--6--6--6--6--6--|7--7--7--7--7--7--7--7--|------------------------|
------------------------|------------------------|------------------------|------------------------|


Chorus
------------------------|------------------------|------------------------|------------------------|
------------------------|------------------------|------------------------|------------------------|
------------------------|------------------------|------------------------|------------------------|
10-10-10-10-10-10-10-10-|10-10-10-10-10-10-10-10-|13-13-13-13-13-13-13-13-|11-11-11-11-11-11-11-11-|
8--8--8--8--8--8--8--8--|8--8--8--8--8--8--8--8--|11-11-11-11-11-11-11-11-|11-11-11-11-11-11-11-11-|
------------------------|------------------------|------------------------|11-11-11-11-11-11-11-11-|

------------------------|------------------------|------------------------|------------------------|
------------------------|------------------------|------------------------|------------------------|
------------------------|------------------------|------------------------|13-13-13-13-12-12-12-12-|
10-10-10-10-10-10-10-10-|10-10-10-10-10-10-10-10-|13-13-13-13-13-13-13-13-|11-11-11-11-11-11-11-11-|
8--8--8--8--8--8--8--8--|8--8--8--8--8--8--8--8--|11-11-11-11-11-11-11-11-|11-11-11-11-11-11-11-11-|
------------------------|------------------------|------------------------|11-11-11-11-11-11-11-11-|

------------------------|------------------------|------------------------|------------------------|
------------------------|------------------------|------------------------|------------------------|
13-13-13-13-13-13-13-13-|13-13-13-13-13-13-13-13-|13-13-13-13-13-13-13-13-|13-13-13-13-13-13-13-13-|
10-10-10-10-10-10-10-10-|10-10-10-10-10-10-10-10-|13-13-13-13-13-13-13-13-|11-11-11-11-11-11-11-11-|
8--8--8--8--8--8--8--8--|8--8--8--8--8--8--8--8--|11-11-11-11-11-11-11-11-|11-11-11-11-11-11-11-11-|
------------------------|------------------------|------------------------|11-11-11-11-11-11-11-11-|

------------------------|------------------------|------------------------|------------------------|
------------------------|------------------------|------------------------|------------------------|
8--8--8--8--8--8--8--8--|8--8--8--8--8--8--8--8--|------------------------|------------------------|
10-10-10-10-10-10-10-10-|10-10-10-10-10-10-10-10-|13-13-13-13-13-13-13-13-|------------------------|
8--8--8--8--8--8--8--8--|8--8--8--8--8--8--8--8--|11-11-11-11-11-11-11-11-|15-15-15-15-11-11-11-11-|
------------------------|------------------------|------------------------|11-11-11-11-11-11-11-11-|


Guitar "theme 1", beginning of 2. verse
------------------------|------------------------|------------------------|------------------------|
------------------------|------------------------|------------------------|------------------------|
------------------------|------------------------|------------------------|------------------------|
------------------------|------------------------|------------------------|------------------------|
------------------------|------------------------|------------------------|------------------------|
3-----------------------|-----------5------------|6-----------------------|11----------------------|

------------------------|------------------------|------------------------|------------------------|
------------------------|------------------------|------------------------|------------------------|
------------------------|------------------------|------------------------|------------------------|
------------------------|------------------------|------------------------|------------------------|
------------------------|------------------------|------------------------|------------------------|
3-----------------------|-----------8------------|6-----------------------|13------11------10------|


Guitar solo
16-16-16-15-15-15-------|---16-16-15-15----------|------------------------|------------------------|
------------------13-13-|13-------------13-13-14-|16----14----13----14----|------------------------|
------------------------|------------------------|------------------------|------------------------|
------------------------|------------------------|------------------------|15----------------------|
------------------------|------------------------|------------------------|------------------------|
------------------------|------------------------|------------------------|------------------------|

16-16-16-15-15-15-------|---16-16-15-15----------|------------------------|------------------------|
------------------13-13-|13-------------13-13-14-|16----14----13----13----|14----------------------|
------------------------|------------------------|------------------------|------------------------|
------------------------|------------------------|------------------------|------------------------|
------------------------|------------------------|------------------------|------------------------|
------------------------|------------------------|------------------------|------------------------|


Guitar "theme 2"
------------------------|------------------------|------------------------|------------------------|
------------------------|------------------------|------------------------|------------------------|
------------------------|------------------------|------------------------|------------------------|
------------------------|------------------------|------------------------|------------------------|
---------6--6--6--6--6--|6----4----3----3--3--4--|4h6---4-----3-----4-----|------------------------|
3-----------------------|------------------------|------------------------|3-----------------------|

------------------------|------------------------|------------------------|------------------------|
------------------------|------------------------|------------------------|------------------------|
------------------------|------------------------|------------------------|------------------------|
------------------------|------------------------|------------------------|------------------------|
---------6--6--6--6--6--|6----4----3----3--3--4--|4h6---4-----3-----3-----|4-----------------------|
------------------------|------------------------|------------------------|------------------------|


Outro
------------------------|------------------------|------------------------|------------------------|
------------------------|------------------------|------------------------|------------------------|
5--5--5--5--5--5--5--5--|5--5--5--5--5--3--3--3--|8--8--8--8--8--8--8--8--|13-13-13-13-13-13-13-13-|
3--3--3--3--3--3--3--3--|3--3--3--3--3--1--1--1--|6--6--6--6--6--6--6--6--|11-11-11-11-11-11-11-11-|
3--3--3--3--3--3--3--3--|3--3--3--3--3--1--1--1--|6--6--6--6--6--6--6--6--|11-11-11-11-11-11-11-11-|
3--3--3--3--3--3--3--3--|3--3--3--3--3--1--1--1--|6--6--6--6--6--6--6--6--|11-11-11-11-11-11-11-11-|

------------------------|------------------------|------------------------|------------------------|
------------------------|------------------------|------------------------|------------------------|
5--5--5--5--5--5--5--5--|5--5--5--5--5--3--3--3--|8--8--8--8--8--8--8--8--|13-13-13-13-12-12-12-12-|
3--3--3--3--3--3--3--3--|3--3--3--3--3--1--1--1--|6--6--6--6--6--6--6--6--|11-11-11-11-11-11-11-11-|
3--3--3--3--3--3--3--3--|3--3--3--3--3--1--1--1--|6--6--6--6--6--6--6--6--|11-11-11-11-11-11-11-11-|
3--3--3--3--3--3--3--3--|3--3--3--3--3--1--1--1--|6--6--6--6--6--6--6--6--|11-11-11-11-11-11-11-11-|


Outro guitar solo
------------------------|------------------------|------------------------|------------------------|
13----13-13-13-13----13-|13-13-13-13----13----13-|13----13-13-13-13----13-|13-13-13-13----13----13-|
15----15-13-15-15----13-|15-15-13-15----15----13-|15----15-13-15-15----13-|15-15-13-12----12----12-|
------------------------|------------------------|------------------------|------------------------|
------------------------|------------------------|------------------------|------------------------|
------------------------|------------------------|------------------------|------------------------|
Добавлено: 25.03.2012
Другие материалы по этой песне:
  • Аккорды и текст

Страница создана 25.03.2012
http://primanota.ru/disco-ensemble/sleep-on-the-wheel-chords.htm
Привет, Гость.
Предлагаем пройти революционный курс по гитаре.
Подарок от PrimaNota.Ru, забирай!