PrimaNota.ru - самый крупный в мире бесплатный архив песенных текстов, аккордов, табулатур и нот


Disco Ensemble - Bay Of Biscay - бас-таба, видео

Регистрация Запомнить меня
Войти через:  Facebook Google Twitter Vk Yandex Mail.ru

Disco Ensemble - Bay Of Biscay - бас-таба, видео

Печатать
Просмотров: 100
Disco Ensemble - Bay of Biscay

Tabbed by: gab|503

Tuning: Drop D (DADG)

Intro:

G|---------------------------------------------------------------------------|
D|---------------------------------------------------------------------------|
A|------------------10-10-10-10-10-10-10-10-7-7-7-7-7-7-7-7-7-7-7-7-7-7-7-7--|
D|--9-9-9-9-9-9-9-9----------------------------------------------------------| x2

G|---------------------------------------------------------------------------|
D|---------------------------------------------------------------------------|
A|------------------10-10-10-10-10-10-10-10-7-7-7-7-7-7-7-7-7-5-5-5-5-5-5-5--|
D|--9-9-9-9-9-9-9-9----------------------------------------------------------|

G|---------------------------------------------------------------------------|
D|---------------------------------------------------------------------------|
A|------------------10-10-10-10-10-10-10-10-7-7-7-7-7-7-7-7-7-7-7-7-7-7-7-7--|
D|--9-9-9-9-9-9-9-9----------------------------------------------------------|

G|---------------------------------------------------------------------------|
D|---------------------------------------------------------------------------|
A|------------------10-10-10-10-10-10-10-10-7-7-7-7-7-7-7-7-7-7-7-7-5-5-5-5--|
D|--9-9-9-9-9-9-9-9----------------------------------------------------------|

G|---------------------------------------------------------------------------|
D|---------------------------------------------------------------------------|
A|------------------10-10-10-10-10-10-10-10-7-7-7-7-7-7-7-7-7-7-7-7-7-7-7-7--|
D|--9-9-9-9-9-9-9-9----------------------------------------------------------|

Verse:

G|---------------------------------------------------------------------------|
D|---------------------------------------------------------------------------|
A|------------------10-10-10-10-10-10-10-10-7-7-7-7-7-7-7-7-7-7-7-7-5-5-5-5--|
D|--9-9-9-9-9-9-9-9----------------------------------------------------------| x2

G|---------------------------------------------------------------------------|
D|---------------------------------------------------------------------------|
A|------------------10-10-10-10-10-10-10-10-7-7-7-7-7-7-7-7-4-4-4-4-4-4-4-4--|
D|--9-9-9-9-9-9-9-9----------------------------------------------------------|

G|---------------------------------------------------------------------------|
D|---------------------------------------------------------------------------|
A|------------------10-10-10-10-10-10-10-10-7-7-7-7-7-7-7-7-7-7-7-7-7-7-7-7--|
D|--9-9-9-9-9-9-9-9----------------------------------------------------------|

Chorus:

G|---------------------------------------------------------------------------|
D|---------------------------------------------------------------------------|
A|------------------10-10-10-10-10-10-10-10-7-7-7-7-7-7-7-7-7-7-7-7-7-7-7-7--|
D|--9-9-9-9-9-9-9-9----------------------------------------------------------| x2

Verse:

G|---------------------------------------------------------------------------|
D|---------------------------------------------------------------------------|
A|------------------10-10-10-10-10-10-10-10-7-7-7-7-7-7-7-7-7-7-7-7-5-5-5-5--|
D|--9-9-9-9-9-9-9-9----------------------------------------------------------| x2

G|---------------------------------------------------------------------------|
D|---------------------------------------------------------------------------|
A|------------------10-10-10-10-10-10-10-10-7-7-7-7-7-7-7-7-9-9-9-9-9-9-9-9--|
D|--9-9-9-9-9-9-9-9----------------------------------------------------------|

G|---------------------------------------------------------------------------|
D|---------------------------------------------------------------------------|
A|------------------10-10-10-10-10-10-10-10-7-7-7-7-7-7-7-7-7-7-7-7-7-7-7-7--|
D|--9-9-9-9-9-9-9-9----------------------------------------------------------|


Chorus


Post-chorus:

G|---------------------------------------------------------------------------|
D|---------------------------------------------------------------------------|
A|------------------10-10-10-10-10-10-10-10-7-7-7-7-7-7-7-7-7-7-7-7-5-5-5-5--|
D|--9-9-9-9-9-9-9-9----------------------------------------------------------|

G|-------------------------------------------------------------------|
D|--5-5-5-5-5-5-5-5-7-7-7-7-7-7-7-7-9-9-9-9-9-9-9-9-9-9-9-9-9-9-9-9--|
A|-------------------------------------------------------------------|
D|-------------------------------------------------------------------| x2

Bridge:

G|---------------------------------------------------------------------------|
D|---------------------------------------------------------------------------|
A|--10-10-10-10-10-10-10-10--------------------------------------------------|
D|--------------------------9-9-9-9-9-9-9-9-7-7-7-7-7-7-7-7-7-7-7-7-7-7-7-7--|

G|---------------------------------------------------------------------------|
D|---------------------------------------------------------------------------|
A|--10-10-10-10-10-10-10-10-----------------------------------------9-9-9-9--|
D|--------------------------9-9-9-9-9-9-9-9-7-7-7-7-7-7-7-7-7-7-7-7----------|

G|---------------------------------------------------------------------------|
D|---------------------------------------------------------------------------|
A|--10-10-10-10-10-10-10-10---------------------------------7-7-7-7-7-7-7-7--|
D|--------------------------9-9-9-9-9-9-9-9-7-7-7-7-7-7-7-7------------------|

G|---------------------------------------------------------------------------|
D|---------------------------------------------------------------------------|
A|--10-10-10-10-10-10-10-10--------------------------------------------------|
D|--------------------------9-9-9-9-9-9-9-9-7-7-7-7-7-7-7-7-7----------------|

Break:

G|---------------------------------------------------------------------------|
D|---------------------------------------------------------------------------|
A|------------------10-10-10-10-10-10-10-10-7-7-7-7-7-7-7-7-7-7-7-7-7-7-7-7--|
D|--9-9-9-9-9-9-9-9----------------------------------------------------------|

G|---------------------------------------------------------------------------|
D|---------------------------------------------------------------------------|
A|------------------10-10-10-10-10-10-10-10-7-7-7-7-7-7-7-7-7-7-7-7-5-5-5-5--|
D|--9-9-9-9-9-9-9-9----------------------------------------------------------|

G|---------------------------------------------------------------------------|
D|---------------------------------------------------------------------------|
A|------------------10-10-10-10-10-10-10-10-7-7-7-7-7-7-7-7-5-5-5-5-5-5-5-5--|
D|--9-9-9-9-9-9-9-9----------------------------------------------------------|

G|----------------------------------------------------------------------|
D|--5-5-5-5-5-5-5-5-7-7-7-7-7-7-7-7-9-9-9-9-9-9-9-9-9-9-9-9-9-9-9-9-----|
A|----------------------------------------------------------------------|
D|------------------------------------------------------------------9\--|

Final chorus:

G|---------------------------------------------------------------------------|
D|---------------------------------------------------------------------------|
A|------------------10-10-10-10-10-10-10-10-7-7-7-7-7-7-7-7-7-7-7-7-5-5-5-5--|
D|--9-9-9-9-9-9-9-9----------------------------------------------------------|

G|---------------------------------------------------------------------------|
D|---------------------------------------------------------------------------|
A|------------------10-10-10-10-10-10-10-10-7-7-7-7-7-7-7-7-5-5-5-5-5-5-5-5--|
D|--9-9-9-9-9-9-9-9----------------------------------------------------------|

G|---------------------------------------------------------------------------|
D|---------------------------------------------------------------------------|
A|------------------10-10-10-10-10-10-10-10-7-7-7-7-7-7-7-7-7-7-7-7-5-5-5-5--|
D|--9-9-9-9-9-9-9-9----------------------------------------------------------|

G|-------------------------------------------------------------------|
D|--5-5-5-5-5-5-5-5-7-7-7-7-7-7-7-7-9-9-9-9-9-9-9-9-9-9-9-9-9-9-9-9--|
A|-------------------------------------------------------------------|
D|-------------------------------------------------------------------|
Добавлено: 01.05.2012
Другие материалы по этой песне:

Страница создана 01.05.2012
http://primanota.ru/disco-ensemble/bay-of-biscay-chords.htm
Привет, Гость.
Предлагаем пройти революционный курс по гитаре.
Подарок от PrimaNota.Ru, забирай!