PrimaNota.ru - самый крупный в мире бесплатный архив песенных текстов, аккордов, табулатур и нот


Discipline - Everywhere We Go - таба, видео

Регистрация Запомнить меня
Войти через:  Facebook Google Twitter Vk Yandex Mail.ru

Discipline - Everywhere We Go - таба, видео

Печатать
Просмотров: 114
===============================================================================
Discipline - Everywhere We Go
===============================================================================

Solo
E---------------------------------------------------------------------------|
B6---6---6---7-6------------------------------------------------------------|
G--6---6---6-----8-6---6---6---6--------------------------------------5-6-8-|
D--------------------8---8---8---10-8--8----8----8----9-8-6--6-6-6-6-6------|
A---------------------------------------10---10---10------------------------|
E---------------------------------------------------------------------------|

Beginning/End:                 Refrain:
E---------                      -------------------|
B---------                      -------------------|
G-6-------                      -6-8--------11-8-6-|
D-6-8-4-6-                      -6-8-8-6-8--11-8-6-|
A-4-8-4-6-                      -4-6-8-6-8--9--6-4-|
E---6-2-4-                      -----6-4-6---------|

On the train to another town
Trying to make our way to the football ground
Every weekend another game
Everywhere we go it's always the same
A few hours later it's over again
A 4:1 loss - we didn't have a chance
We're leaving the stands, we're on the move
Out on the streets a hell breaks loose

Everywhere, everywhere we go

We are invading their town, this city is ours
Tearing down fences and smashing up bars
The smell of tear gas in the air
The riot squad is coming but we don't care
Police try to stop us but they never will
The firm is too strong and we kick to kill
Never surrender! We're going all the way
The city is one fire, we had a hell of a day.

| /  slide up
| \  slide down
| h  hammer-on
| p  pull-off
| ~  vibrato
| +  harmonic
| x  Mute note
===============================================================================
Добавлено: 15.05.2012
Другие материалы по этой песне:
  • Аккорды и текст

Страница создана 15.05.2012
http://primanota.ru/discipline/everywhere-we-go-chords.htm
Привет, Гость.
Предлагаем пройти революционный курс по гитаре.
Подарок от PrimaNota.Ru, забирай!