PrimaNota.ru - самый крупный в мире бесплатный архив песенных текстов, аккордов, табулатур и нот


Disciples - Swing set - таба, видео

Регистрация Запомнить меня
Войти через:  Facebook Google Twitter Vk Yandex Mail.ru

Disciples - Swing set - таба, видео

Печатать
Просмотров: 85


Verse:
e------------------------------------------------
b------------------------------------------------
g------------------------------------------------
d-4-4-4-4-4-4-4-4-4-4-5-5-5-5-5-5-5-5-5-5-7-7-7-7
a-4-4-4-4-4-4-4-4-4-4-5-5-5-5-5-5-5-5-5-5-7-7-7-7
e-2-2-2-2-2-2-2-2-2-2-3-3-3-3-3-3-3-3-3-3-5-5-5-5

e------------------------------------------------
b------------------------------------------------
g------------------------------------------------
d-7-7-7-7-7-7-6-6-6-6-6-6-6-6-6-6----------------
a-7-7-7-7-7-7-6-6-6-6-6-6-6-6-6-6----------------
e-5-5-5-5-5-5-4-4-4-4-4-4-4-4-4-4----------------

Chourus:
e------------------------------------------------
b------------------------------------------------
g------------------------------------------------
d-3-3-3-3-3-3-2-2-2-2-2-2-5-5-5-5-5-5-2-2-3-2----
a-3-3-3-3-3-3-2-2-2-2-2-2-5-5-5-5-5-5-2-2-3-2----
e-3-3-3-3-3-3-2-2-2-2-2-2-5-5-5-5-5-5-2-2-3-2----

Bridge:
e------------------------------------------------
b------------------------------------------------
g------------------------------------------------
d------------------------------------------------
a-5-5-5-5-5-6-6-6-6-6-5-5-5-5-5-4-4-4-4-4--------
e-3-3-3-3-3-4-4-4-4-4-3-3-3-3-3-2-2-2-2-2--------

It goes:
verse
verse
verse
chorus
chorus
verse
verse
chorus
chorus
bridge
bridge
chorus
chorus
chorus
chorus


Добавлено: 31.12.2013
Другие материалы по этой песне:
  • Аккорды и текст

Страница создана 31.12.2013
http://primanota.ru/disciples/swing-set-chords.htm
Привет, Гость.
Предлагаем пройти революционный курс по гитаре.
Подарок от PrimaNota.Ru, забирай!