PrimaNota.ru - самый крупный в мире бесплатный архив песенных текстов, аккордов, табулатур и нот


Disciple - Whisper So Loud - таба, видео

Регистрация Запомнить меня
Войти через:  Facebook Google Twitter Vk Yandex Mail.ru

Disciple - Whisper So Loud - таба, видео

Печатать
Просмотров: 137
CGCFAD

 / slide up
 \ slide down
 ~ tremolo
 h hammer-on
 p pull-off
 b bend
 " pizzicato (?)

Intro
Gtr. 1 (lead)
D|---5"-------------------------------------------------------------------------------|
A|---5"--------------/13b--13b12--12-----12-12-12-10---------------10-----10----------|
F|---5"--------------/13b--13b12--12-----12-12-12-10---------------10-----10----------|
C|---5"--5--------------------------12-10------------12-10h12p10h12--12p10--12p10-12~-|
G|-------5"-scratch\------------------------------------------------------------------|
C|-------5"-scratch\------------------------------------------------------------------|

|-----------------------------------------------------------------------|
|---10-----------------------------------------------------10-10-10-----|
|---10-------------------------------------------10-12b12~-10-10-10-----|
|-----10---------------------------------------12---12b12~----------12~-|
|-------12-11-10-8-10-11-11b~-10----------10-12-------------------------|
|-------------------------------12~--10-12------------------------------|

Gtr. 2 (rhythm)
|-----------------------------------------------------------|
|-----------------------------------------------------------|
|------------------------------7-------10--10-10--5---5-5---|
|---------------------0-----x--7----x--10--10-10--5---5-5---|
|-----------scratch\--0-----x--5----x--8---8--8---3---3-3---|
|-----------scratch\--0-----x--0----x-----------------------|

|-------------------------------------------|
|-------------------------------------------|
|---7------7-------10--10-10--5---5-5-x-7---|
|---7---x--7----x--10--10-10--5---5-5-x-7---|
|---5---x--5----x--8---8--8---3---3-3-x-5---|
|-------x--0----x---------------------x-0---|

Verse 1
Gtr. 1
|--------------------------------------|
|--------------------------------------|
|---x--7-------------------------x-7---|
|---x--7-------------------------x-7---|
|---x--5-------------------------x-5---|
|---x--0-------------------------x-0---|

|--------------------------------------|
|--------------------------------------|
|------7----x--10--10-10--5---5-5------|
|---x--7----x--10--10-10--5---5-5------|
|---x--5----x--8---8--8---3---3-3------|
|---x--0-------------------------------|

0:36
|-----------------------------------------------------|
|-----------------------------------------------------|
|----------7--------7--------7--10--10-10--5--5-5-----|
|---7--7---7-7--7---7-7--7---7--10--10-10--5--5-5-----| 2x
|---5--5---5-5--5---5-5--5---5--8---8--8---3--3-3-----|
|---0--0-----0--0-----0--0----------------------------|

|----------------------------------|--------|--------|--------|------------------|
|----------------------------------|--/15b~-|--/14b~-|--/13b~-|--10101010101010--|
|----------------------------------|--------|--------|--------|--7-7-7-7-7-7-7---|
|----------------------------------|--------|--------|--------|--7-7-7-7-7-7-7---|
|-------0-0-0-0-0-0-0-0-0----------|--------|--------|--------|------------------|
|---0---0-0-0-0-0-0-0-0-0-10h12p10-|--------|--------|--------|------------------|
P.M.    . . . . . . . . .

Gtr. 2
|--------------------------------------|
|--------------------------------------|
|------7----x--10--10-10--5---5-5--7---|
|---x--7----x--10--10-10--5---5-5--7---|
|---x--5----x--8---8--8---3---3-3--5---|
|---x--0-------------------------------|

|--------------------------------------|
|--------------------------------------|
|------7-------------------------------|
|---x--7-------------------------------|
|---x--5-------------------------------|
|---x--0-------------------------------|

0:36
|-----------------------------------------------------|
|-----------------------------------------------------|
|----------7--------7--------7--10--10-10--5--5-5-----|
|---7--7---7-7--7---7-7--7---7--10--10-10--5--5-5-----| 2x
|---5--5---5-5--5---5-5--5---5--8---8--8---3--3-3-----|
|---0--0-----0--0-----0--0----------------------------|

|----------------------------------|--------|--------|--------|-----------|
|----------------------------------|--/7b~--|--/7b~--|--/5b~--|-----------|
|----------------------------------|--------|--------|--------|--7777777--|
|----------------------------------|--------|--------|--------|--7777777--|
|-------0-0-0-0-0-0-0-0-0--3h5p3---|--------|--------|--------|--5555555--|
|---0---0-0-0-0-0-0-0-0-0----------|--------|--------|--------|-----------|
P.M.    . . . . . . . . .

Chorus 0:57
Gtr. 1
|------------------------------------------------------------------------------|
|---7-7777777777777--7-5-666656666656666-6--8-888888888888888--6---x-8---x-10--|
|---7-7777777777777--7-3-333333333333333-3--5-555555555555555--3---x-5---x-7---|
|---7-7777777777777--7-3-333333333333333-3--5-555555555555555--3---x-5---x-7---|
|------------------------------------------------------------------------------|
|------------------------------------------------------------------------------|

|---------------------------------------------------------------|
|---7-7777777777777--7-5-666656666656666-6----------------------|
|---7-7777777777777--7-3-333333333333333-3--7-777777777777777---|
|---7-7777777777777--7-3-333333333333333-3--7-777777777777777---|
|-------------------------------------------5-555555555555555---|
|---------------------------------------------------------------|

|-----------------------------------------------------------------------|
|-5-666656--888888888888888---------------------------------------------|
|-3-333333--555555555555555--777777777777777--10-10101010101010--1012---|
|-3-333333--555555555555555--777777777777777--10-10101010101010--1012---|
|----------------------------555555555555555--8--8-8-8-8-8-8-8---8-10---|
|-----------------------------------------------------------------------|

Verse 2
Gtr. 1
|--------------------------------------|
|--------------------------------------|
|---x--7-------------------------x-7---|
|---x--7-------------------------x-7---|
|---x--5-------------------------x-5---|
|---x--0-------------------------x-0---|

|---------------------------------------------|
|-----------3-3-6-3-6-3-6-8-3-3-6-3-6-3-6-8---|
|------7--------------------------------------|
|---x--7--------------------------------------|
|---x--5--------------------------------------|
|---x--0--------------------------------------|
PM          ..    .   .     . .   .   .

0:36
|-----------------------------------------------------|
|-----------------------------------------------------|
|----------7--------7--------7--10--10-10--5--5-5-----|
|---7--7---7-7--7---7-7--7---7--10--10-10--5--5-5-----| 2x
|---5--5---5-5--5---5-5--5---5--8---8--8---3--3-3-----|
|---0--0-----0--0-----0--0----------------------------|

|----------------------------------|--------|--------|--------|------------------|
|----------------------------------|--/15b~-|--/14b~-|--/13b~-|--10101010101010--|
|----------------------------------|--------|--------|--------|--7-7-7-7-7-7-7---|
|----------------------------------|--------|--------|--------|--7-7-7-7-7-7-7---|
|-------0-0-0-0-0-0-0-0-0----------|--------|--------|--------|------------------|
|---0---0-0-0-0-0-0-0-0-0-10h12p10-|--------|--------|--------|------------------|
P.M.    . . . . . . . . .

Gtr. 2
|--------------------------------------|
|--------------------------------------|
|------7----x--10--10-10--5---5-5--7---|
|---x--7----x--10--10-10--5---5-5--7---|
|---x--5----x--8---8--8---3---3-3--5---|
|---x--0-------------------------------|

|--------------------------------------|
|--------------------------------------|
|------7-------------------------------|
|---x--7-------------------------------|
|---x--5-------------------------------|
|---x--0-------------------------------|

0:36
|-----------------------------------------------------|
|-----------------------------------------------------|
|----------7--------7--------7--10--10-10--5--5-5-----|
|---7--7---7-7--7---7-7--7---7--10--10-10--5--5-5-----| 2x
|---5--5---5-5--5---5-5--5---5--8---8--8---3--3-3-----|
|---0--0-----0--0-----0--0----------------------------|

|----------------------------------|--------|--------|--------|-----------|
|----------------------------------|--/7b~--|--/7b~--|--/5b~--|-----------|
|----------------------------------|--------|--------|--------|--7777777--|
|----------------------------------|--------|--------|--------|--7777777--|
|-------0-0-0-0-0-0-0-0-0--3h5p3---|--------|--------|--------|--5555555--|
|---0---0-0-0-0-0-0-0-0-0----------|--------|--------|--------|-----------|
P.M.    . . . . . . . . .

Chorus

Solo 2:20
Gtr. 1
|------------------------------------------|
|---------/13--(13)--(13)--(13)-(13)-(13)\-|
|---7-----/14--(14)--(14)--(14)-(14)-(14)\-|
|---7--------------------------------------|
|---5--------------------------------------|
|------------------------------------------|

(this is the best I could do on this part)
|---10-12-13--10-12-13--10-12-13--10-12-13--10-12-13--10--|
|-----------13--------13--------13--------13--------13----|
|---------------------------------------------------------|
|---------------------------------------------------------|
|---------------------------------------------------------|
|---------------------------------------------------------|

|---12-13-15--12-13-15--12-13-15--12-13-15--12-13-15--12--|
|-15--------15--------15--------15--------15--------15----|
|---------------------------------------------------------|
|---------------------------------------------------------|
|---------------------------------------------------------|
|---------------------------------------------------------|

|---13-15-16--13-15-16--13-15-16--13-15-16--13-15-16--13--|
|-17--------17--------17--------17--------17--------17----|
|---------------------------------------------------------|
|---------------------------------------------------------|
|---------------------------------------------------------|
|---------------------------------------------------------|

|---15-16-18--15-16-18--15-16-18--15-16-18--15-16-18--/20\-17-17-16-15-13-15-17~~--|
|-18--------18--------18--------18--------18--------18-----------------------------|
|----------------------------------------------------------------------------------|
|----------------------------------------------------------------------------------|
|----------------------------------------------------------------------------------|
|----------------------------------------------------------------------------------|

|-----------------------------------------------|
|-----------------------------------------------|
|-----------------------------------------------|
|------------------------------------10~~~------|
|---------------------------------10------------|
|---10-12-12-12-15-12-15-12-15-15---------------|

Gtr. 2
|----------------------------|
|----------------------------|
|----------------------/5b~--|
|----------------------------| 2x
|-----------------3h5--------|
|---0--0h3p0h3p0-------------|

|----------------------------|
|----------------------------|
|----------------------/7b~--|
|----------------------------| 2x
|-----------------3h5--------|
|---0--0h3p0h3p0-------------|

|----------------------------|
|----------------------------|
|----------------------------|
|----------------------------| 4x
|---0--0-3-0----0--3h5--3----|
|---0--0-3-0----0--3h5--3----|

|--------------|
|--------------|
|--------------|
|---0---0------| 2x
|---0---0------|
|---0---0------|

Chorus

Outro 3:10
Both Guitars
|------------------------------------|
|------------------------------------|
|---3-3-3-3-3-3-3--5-5-5-5-5-5--5\---|
|---3-3-3-3-3-3-3--5-5-5-5-5-5--5\---|
|---1-1-1-1-1-1-1--3-3-3-3-3-3--3\---|
|------------------------------------|
PM  . . . . . . .  . . . . . .

Gtr. 1
|----------------|
|----------------|
|---7-7----------|
|---7-7----------| 2x
|---5-5-0-0-0----|
|-------0-0-0----|
PM      . . .         stop here second time
                               V
|------------------------------|---------------------------|
|------------------------------|---------------------------|
|---7-7-------7-10-1010-5--5-5-|-7-7-------7--7-7-------7--|
|---7-7-------7-10-1010-5--5-5-|-7-7-------7--7-7-------7--| 2x
|---5-5-0-0-0-5-8--8-8--3--3-3-|-5-5-0-0-0-5--5-5-0-0-0-5--|
|-------0-0-0------------------|-----0-0-0--------0-0-0----|
PM      . . .                        . . .        . . .

|------------------------------------------------------------------------------------|
|------------------------------------------------------------------------------------|
|-----------------------------------------------------------------10-10-5--5-5-------|
|-----------------------------------------------------------------10-10-5--5-5-------|
|-----------------------------------------------------------------8--8--3--3-3-------|
|---0-0h12p0h12p0--0-0---0-0h12p0h12p0--0-0---0-0h12p0h12p0--0-0---------------------|

|------------------------------------------------------------------------------------|
|------------------------------------------------------------------------------------|
|------------------------------------------------------------------------------------|
|----------------------------------------------------------1010101010101010-0--0-----|
|-------------------------------------------/5~~-----------1010101010101010-0--0-----|
|---0-0h12p0h12p0--0-0---0-0h12p0h12p0--0-5b--------9b~~~--1010101010101010-0--0-----|

Gtr. 1
|---------------|
|---------------|
|---7-7------7--|
|---7-7---0--7--|
|---5-5---0--5--|
|---0-0---0--0--|

(3:15) can't tell what exactly this guitar is doing here...
|-----------------------------------------------------------------------------|
|-----------?-3--3-----3--6--6-6--1--1-1--3--3---3--3-3-----------------------|
|---7-7-----?-2--2-----2--5--5-5--0--0-0--2--2---2--2-2-----------------------|
|---7-7-----------------------------------------------------------------------|
|---5-5-----------------------------------------------------------------------|
|---0-0-----------------------------------------------------------------------|

3:23
|-----------------------------------------------------------------------------|
|----------------------------------------------------------------9--999999----|
|---------7---7----------------7---7----------------7---7--------9--999999----|
|---0---0-7-0-7-0--0-0---0---0-7-0-7-0--0-0---0---0-7-0-7-0--0-0----^bend^----|
|---------------------------------------------------------------------up------|
|-----------------------------------------------------------------------------|

|-------------------------------------------10b~--------------------------------|
|--------------------------------------------------------------9--999999--------|
|---------7---7----------------7---7----------------7-7-7-7-7--9--999999--7--7--|
|---0---0-7-0-7-0--0-0---0---0-7-0-7-0--0-0-------0-7-7-7-7-7-----^bend^--7--7--|
|-------------------------------------------------------------------up----------|
|-------------------------------------------------------------------------------|
Добавлено: 07.07.2012
Другие материалы по этой песне:
  • Аккорды и текст

Страница создана 07.07.2012
http://primanota.ru/disciple/whisper-so-loud-chords.htm
Привет, Гость.
Предлагаем пройти революционный курс по гитаре.
Подарок от PrimaNota.Ru, забирай!