PrimaNota.ru - самый крупный в мире бесплатный архив песенных текстов, аккордов, табулатур и нот


Disciple - O God Save Us All - таба, видео

Регистрация Запомнить меня
Войти через:  Facebook Google Twitter Vk Yandex Mail.ru

Disciple - O God Save Us All - таба, видео

Печатать
Просмотров: 90
-------------------------------------------------------------------------------
                             O GOD SAVE US ALL - Disciple
-------------------------------------------------------------------------------
Tabbed by: Tap Master
E-mail: colindbetts@yahoo.com

Tuning: Drop C

Unless there is a deviated part, both guitars play the same part.


INTRO

      E   E   E
e|-----------------|
B|---(+)-(+)-(+)---|
G|---(+)-(+)-(+)---|
D|---(+)-(+)-(+)---|
A|-----------------|
E|-----------------|

VERSE (Repeat x2)

    E E Q   E Q   E  E  E  Q   E Q   E E E E E E Q   E  E  E  E  E  E E E E
e|--------------------------------------------------------------------------|
B|--------------------------------------------------------------------------|
G|------------------10-10------------------------------10-10-10-10--9-9-9-9-|
D|--6-7-0---0-7---0--X--X--7---6-7---0-1-5-1-0-1-0---0--X--X--X--X--X-X-X-X-|
A|--6-7-0---0-7---0--8--8--7---6-7---0-1-5-1-0-1-0---0--8--8--8--8--7-7-7-7-|
E|--6-7-0---0-7---0--------7---6-7---0-1-5-1-0-1-0---0----------------------|
 |
 |
 |  E E Q   E Q   E  E  E  Q   E Q   E E E E E E Q   E E E E E E E E E
e|--------------------------------------------------------------------------|
B|--------------------------------------------------------------------------|
G|------------------10-10-------------------------------3--3--3--3--6-6-6-6-|
D|--6-7-0---0-7---0--X--X--7---6-7---0-1-5-1-0-1-0---0--3--3--3--3--6-6-6-6-|
A|--6-7-0---0-7---0--8--8--7---6-7---0-1-5-1-0-1-0---0--1--1--1--1--4-4-4-4-|
E|--6-7-0---0-7---0--------7---6-7---0-1-5-1-0-1-0---0----------------------|

VERSE BREAKDOWN (Repeat x2)

    E E Q   E Q                E Q   E E E E E E Q           E E E E E
e|--------------------------------------------------------------------------|
B|--------------------------------------------------------------------------|
G|--------------------------------------------------------------------------|
D|--6-7-0---0-7----------------6-7---0-1-5-1-0-1-0-----------0-1-5-1-0------|
A|--6-7-0---0-7----------------6-7---0-1-5-1-0-1-0-----------0-1-5-1-0------|
E|--6-7-0---0-7----------------6-7---0-1-5-1-0-1-0-----------0-1-5-1-0------|

PRE-CHORUS (1 Measure)

    SS SS SSSS
e|--------------|
B|--------------|
G|--------------|
D|--------------|
A|--------------|
E|--00-00-0000--|
    xx xx xxxx

CHORUS

    E E E E E E E E   E  E  E  E  E E E E E E E E E E E E E E E E E E E E
e|--------------------------------------------------------------------------|
B|--------------------------------------------------------------------------|
G|--------------------------------------------------------------------------|
D|--8-8-8-8-8-8-8-8--10-10-10-10--7-7-7-7-0-0-0-0-0-0-0-0-3-3-3-3-3-3-3-3---|
A|--8-8-8-8-8-8-8-8--10-10-10-10--7-7-7-7-0-0-0-0-0-0-0-0-3-3-3-3-3-3-3-3---|
E|--8-8-8-8-8-8-8-8--10-10-10-10--7-7-7-7-0-0-0-0-0-0-0-0-3-3-3-3-3-3-3-3---|

    E E E E E E E E   E  E  E  E  E E E E    S SS SS E SS SS   SS SS E SS S S S
e|-------------------------------------------------------------------------------|
B|-------------------------------------------------------------------------------|
G|-------------------------------------------------------------------------------|
D|--8-8-8-8-8-8-8-8--10-10-10-10--7-7-7-7----------------------------------------|
A|--8-8-8-8-8-8-8-8--10-10-10-10--7-7-7-7------------3---------------3-----------|
E|--8-8-8-8-8-8-8-8--10-10-10-10--7-7-7-7----0-00-00---00-00---00-00---00-3-5-0--|


    E E E E E E E E   E  E  E  E  E E E E E E E E E E E E E E E E E E E E
e|--------------------------------------------------------------------------|
B|--------------------------------------------------------------------------|
G|--------------------------------------------------------------------------|
D|--8-8-8-8-8-8-8-8--10-10-10-10--7-7-7-7-0-0-0-0-0-0-0-0-3-3-3-3-3-3-3-3---|
A|--8-8-8-8-8-8-8-8--10-10-10-10--7-7-7-7-0-0-0-0-0-0-0-0-3-3-3-3-3-3-3-3---|
E|--8-8-8-8-8-8-8-8--10-10-10-10--7-7-7-7-0-0-0-0-0-0-0-0-3-3-3-3-3-3-3-3---|


    E E E E E E E E E E E E E E E E H^E     E   E   E
e|------------------------------------------------------|
B|-----------------------------------------(+)-(+)-(+)--|
G|-----------------------------------------(+)-(+)-(+)--|
D|--8-8-8-8-8-8-8-8-7-7-7-7-7-7-7-7-0------(+)-(+)-(+)--|
A|--8-8-8-8-8-8-8-8-7-7-7-7-7-7-7-7-0-------------------|
E|--8-8-8-8-8-8-8-8-7-7-7-7-7-7-7-7-0-------------------|


VERSE (Repeat x2)

    E E Q   E Q   E  E  E  Q   E Q   E E E E E E Q   E  E  E  E  E  E E E E
e|--------------------------------------------------------------------------|
B|--------------------------------------------------------------------------|
G|------------------10-10------------------------------10-10-10-10--9-9-9-9-|
D|--6-7-0---0-7---0--X--X--7---6-7---0-1-5-1-0-1-0---0--X--X--X--X--X-X-X-X-|
A|--6-7-0---0-7---0--8--8--7---6-7---0-1-5-1-0-1-0---0--8--8--8--8--7-7-7-7-|
E|--6-7-0---0-7---0--------7---6-7---0-1-5-1-0-1-0---0----------------------|
 |
 |
 |  E E Q   E Q   E  E  E  Q   E Q   E E E E E E Q   E E E E E E E E E
e|--------------------------------------------------------------------------|
B|--------------------------------------------------------------------------|
G|------------------10-10-------------------------------3--3--3--3--6-6-6-6-|
D|--6-7-0---0-7---0--X--X--7---6-7---0-1-5-1-0-1-0---0--3--3--3--3--6-6-6-6-|
A|--6-7-0---0-7---0--8--8--7---6-7---0-1-5-1-0-1-0---0--1--1--1--1--4-4-4-4-|
E|--6-7-0---0-7---0--------7---6-7---0-1-5-1-0-1-0---0----------------------|

VERSE BREAKDOWN (Repeat x2)

    E E Q   E Q                E Q   E E E E E E Q           E E E E E
e|--------------------------------------------------------------------------|
B|--------------------------------------------------------------------------|
G|--------------------------------------------------------------------------|
D|--6-7-0---0-7----------------6-7---0-1-5-1-0-1-0-----------0-1-5-1-0------|
A|--6-7-0---0-7----------------6-7---0-1-5-1-0-1-0-----------0-1-5-1-0------|
E|--6-7-0---0-7----------------6-7---0-1-5-1-0-1-0-----------0-1-5-1-0------|

PRE-CHORUS (1 Measure)

    SS SS SSSS
e|--------------|
B|--------------|
G|--------------|
D|--------------|
A|--------------|
E|--00-00-0000--|
    xx xx xxxx

CHORUS

    E E E E E E E E   E  E  E  E  E E E E E E E E E E E E E E E E E E E E
e|--------------------------------------------------------------------------|
B|--------------------------------------------------------------------------|
G|--------------------------------------------------------------------------|
D|--8-8-8-8-8-8-8-8--10-10-10-10--7-7-7-7-0-0-0-0-0-0-0-0-3-3-3-3-3-3-3-3---|
A|--8-8-8-8-8-8-8-8--10-10-10-10--7-7-7-7-0-0-0-0-0-0-0-0-3-3-3-3-3-3-3-3---|
E|--8-8-8-8-8-8-8-8--10-10-10-10--7-7-7-7-0-0-0-0-0-0-0-0-3-3-3-3-3-3-3-3---|

    E E E E E E E E   E  E  E  E  E E E E    S SS SS E SS SS   SS SS E SS S S S
e|-------------------------------------------------------------------------------|
B|-------------------------------------------------------------------------------|
G|-------------------------------------------------------------------------------|
D|--8-8-8-8-8-8-8-8--10-10-10-10--7-7-7-7----------------------------------------|
A|--8-8-8-8-8-8-8-8--10-10-10-10--7-7-7-7------------3---------------3-----------|
E|--8-8-8-8-8-8-8-8--10-10-10-10--7-7-7-7----0-00-00---00-00---00-00---00-3-5-0--|


    E E E E E E E E   E  E  E  E  E E E E E E E E E E E E E E E E E E E E
e|--------------------------------------------------------------------------|
B|--------------------------------------------------------------------------|
G|--------------------------------------------------------------------------|
D|--8-8-8-8-8-8-8-8--10-10-10-10--7-7-7-7-0-0-0-0-0-0-0-0-3-3-3-3-3-3-3-3---|
A|--8-8-8-8-8-8-8-8--10-10-10-10--7-7-7-7-0-0-0-0-0-0-0-0-3-3-3-3-3-3-3-3---|
E|--8-8-8-8-8-8-8-8--10-10-10-10--7-7-7-7-0-0-0-0-0-0-0-0-3-3-3-3-3-3-3-3---|


    E E E E E E E E E E E E E E E E E E E E E E E E E E E E E E E E E E
e|------------------------------------------------------------------------|
B|------------------------------------------------------------------------|
G|------------------------------------------------------------------------|
D|--8-8-8-8-8-8-8-8-7-7-7-7-7-7-7-7-0-0-0-0-0-0-0-0-0-3-3-3-3-3-3-3-3-3---|
A|--8-8-8-8-8-8-8-8-7-7-7-7-7-7-7-7-0-0-0-0-0-0-0-0-0-3-3-3-3-3-3-3-3-3---|
E|--8-8-8-8-8-8-8-8-7-7-7-7-7-7-7-7-0-0-0-0-0-0-0-0-0-3-3-3-3-3-3-3-3-3---|


    E E E E E E E E E E E E E E E E
e|------------------------------------|
B|------------------------------------|
G|------------------------------------|
D|--8-8-8-8-8-8-8-8-7-7-7-7-7-7-7-7---|
A|--8-8-8-8-8-8-8-8-7-7-7-7-7-7-7-7---|
E|--8-8-8-8-8-8-8-8-7-7-7-7-7-7-7-7---|

BREAKDOWN

(Guitar I plays, Guitar II is silent)
    SS SS SSSSSS   SSSS SSSS SSSS SS SSSSSS   SSSS
e|--------------------------------------------------------------------------|
B|--------------------------------------------------------------------------|
G|--------------------------------------------------------------------------|
D|--------------------------------------------------------------------------|
A|--------------------------------------------------------------------------|
E|--00-00-000000---0000-0000-0000-00-000000---0000--------------------------|
    xx xx xxxxxx   xxxx xxxx xxxx xx xxxxxx   xxxx

(Both Guitars) (Repeat x2)
    SS SS SSSSSS   SSSS SSSS SSSS SS SSSSSS   SSSS S S S S S S S S
e|--------------------------------------------------------------------------|
B|--------------------------------------------------------------------------|
G|--------------------------------------------------------------------------|
D|--------------------------------------------------------------------------|
A|--------------------------------------------------------------------------|
E|--00-00-000000---0000-0000-0000-00-000000---0000-6-6-6-6-1-1-1-1----------|
    xx xx xxxxxx   xxxx xxxx xxxx xx xxxxxx   xxxx

POST BREAKDOWN (Repeat x2)

    E E Q   Q.   Q  SSSS E E E E E E E Q   Q.   Q  SSSS E E E E E
e|--------------------------------------------------------------------------|
B|--------------------------------------------------------------------------|
G|--------------------------------------------------------------------------|
D|--------------------------------------------------------------------------|
A|----5------------------------------5--------------------------------------|
E|--6---0---5b---0--3333-0-3-0-3-5-6---0---5b---0--3333-0-3-0-3-5-----------|


CHORUS

    E E E E E E E E   E  E  E  E  E E E E E E E E E E E E E E E E E E E E
e|--------------------------------------------------------------------------|
B|--------------------------------------------------------------------------|
G|--------------------------------------------------------------------------|
D|--8-8-8-8-8-8-8-8--10-10-10-10--7-7-7-7-0-0-0-0-0-0-0-0-3-3-3-3-3-3-3-3---|
A|--8-8-8-8-8-8-8-8--10-10-10-10--7-7-7-7-0-0-0-0-0-0-0-0-3-3-3-3-3-3-3-3---|
E|--8-8-8-8-8-8-8-8--10-10-10-10--7-7-7-7-0-0-0-0-0-0-0-0-3-3-3-3-3-3-3-3---|

    E E E E E E E E   E  E  E  E  E E E E    S SS SS E SS SS   SS SS E SS S S S
e|-------------------------------------------------------------------------------|
B|-------------------------------------------------------------------------------|
G|-------------------------------------------------------------------------------|
D|--8-8-8-8-8-8-8-8--10-10-10-10--7-7-7-7----------------------------------------|
A|--8-8-8-8-8-8-8-8--10-10-10-10--7-7-7-7------------3---------------3-----------|
E|--8-8-8-8-8-8-8-8--10-10-10-10--7-7-7-7----0-00-00---00-00---00-00---00-3-5-0--|
                                            (^This time, play staccato)


E E E E E E E E   E  E  E  E  E E E E E E E E E E E E E E E E E E E E
e|--------------------------------------------------------------------------|
B|--------------------------------------------------------------------------|
G|--------------------------------------------------------------------------|
D|--8-8-8-8-8-8-8-8--10-10-10-10--7-7-7-7-0-0-0-0-0-0-0-0-3-3-3-3-3-3-3-3---|
A|--8-8-8-8-8-8-8-8--10-10-10-10--7-7-7-7-0-0-0-0-0-0-0-0-3-3-3-3-3-3-3-3---|
E|--8-8-8-8-8-8-8-8--10-10-10-10--7-7-7-7-0-0-0-0-0-0-0-0-3-3-3-3-3-3-3-3---|


    E E E E E E E E E E E E E E E E E E E E E E E E E E E E E E E E E E
e|------------------------------------------------------------------------|
B|------------------------------------------------------------------------|
G|------------------------------------------------------------------------|
D|--8-8-8-8-8-8-8-8-7-7-7-7-7-7-7-7-0-0-0-0-0-0-0-0-0-3-3-3-3-3-3-3-3-3---|
A|--8-8-8-8-8-8-8-8-7-7-7-7-7-7-7-7-0-0-0-0-0-0-0-0-0-3-3-3-3-3-3-3-3-3---|
E|--8-8-8-8-8-8-8-8-7-7-7-7-7-7-7-7-0-0-0-0-0-0-0-0-0-3-3-3-3-3-3-3-3-3---|


    E E E E E E E E E E E E E E E E
e|------------------------------------|
B|------------------------------------|
G|------------------------------------|
D|--8-8-8-8-8-8-8-8-7-7-7-7-7-7-7-7---|
A|--8-8-8-8-8-8-8-8-7-7-7-7-7-7-7-7---|
E|--8-8-8-8-8-8-8-8-7-7-7-7-7-7-7-7---|


OUTRO

    SS SS SSSSSS
e|----------------|
B|----------------|
G|----------------|
D|----------------|
A|----------------|
E|--00-00-000000--|
    xx xx xxxxxx

This is super fun to play, especially DAT BREAKDOWN.
I hope this has been a huge help :)

~Tap Master

P.S. Feel free to email me requests!
************************************

| W   Whole Note
| H   Half Note
| Q   Quarter Note
| E   Eighth Note
| S   Sixteenth Note
| #.  Dotted Note (Add half of the # note length)
| ^   Tied Note (Add the two note lengths together)
| X   Mute note
| /   slide up
| \   slide down
| h   hammer-on
| p   pull-off
| ~   vibrato
|(+)  harmonic
| x   Palm mute
| b   Bend
| pb  Pre-bend
| br  Bend release
| pbr Pre-bend release
| brb Bend release bend

************************************
Добавлено: 22.08.2013
Другие материалы по этой песне:
  • Аккорды и текст

Страница создана 22.08.2013
http://primanota.ru/disciple/o-god-save-us-all-chords.htm
Привет, Гость.
Предлагаем пройти революционный курс по гитаре.
Подарок от PrimaNota.Ru, забирай!