PrimaNota.ru - самый крупный в мире бесплатный архив песенных текстов, аккордов, табулатур и нот


Disciple - Liar - текст песни, таба, бас-таба, видео

Регистрация Запомнить меня
Войти через:  Facebook Google Twitter Vk Yandex Mail.ru

Disciple - Liar - текст песни, таба, бас-таба, видео

Печатать
Просмотров: 145
 / slide up
 \ slide down
 ~ tremolo
 * tremolo picking
 h hammer-on
 p pull-off
 b bend

Intro
Both Guitars 4x
D|----------|------------------------------------------------------------------|
A|----------|-----------------------------------------------------------12~~---|
F|--(lead.)-|-----------------------------------------------12h13p12-10-12~~---|
C|---12\10--|------------------------------------------------------------------|
G|----------|------------------------------------------------------------------|
C|----------|--0-0-0-0--0-0---0-0-0-0--0-0---0-0-0-0--0-0----------------------|
PM             . . . .  . .   . . . .  . .   . . . .  . .

0:22
Verse 1
Guitar 1 (lead)
|-----------------------------------------|
|-/---------------------------------------|
|-/------------14--------------------14---|
|---14-15-14-15--15-14-15-14-15-14-15-----|
|-----------------------------------------|
|-----------------------------------------|
PM  .  .  .  .   .  .  .  .  .  .  .

|--------------------------------------------------|
|--------------------------------------------------|
|-----------------------15--------------------15---|
|---15-14-15-14-15-14-15--15-14-15-14-15-14-15-----|
|--------------------------------------------------|
|--------------------------------------------------|
PM  .  .  .  .  .  .  .   .  .  .  .  .  .  .

|--------------------------------------------------|
|-----------------------14--------------------14---|
|---15-14-15-14-15-14-15--15-14-15-14-15-14-15-----|
|--------------------------------------------------|
|--------------------------------------------------|
|--------------------------------------------------|
PM  .  .  .  .  .  .  .   .  .  .  .  .  .  .

|----------------------------------------------------------|
|----------------------------------------------------------|
|-----------------------15--------------------15-----------|
|---15-14-15-14-15-14-15--15-14-15-14-15-14-15--15-14-15---|
|----------------------------------------------------------|
|----------------------------------------------------------|
PM  .  .  .  .  .  .  .   .  .  .  .  .  .  .   .  .  .

Guitar 2 (rhythm)
|---------------------------------------------------|
|---------------------------------------------------|
|------------------7--------------------------------|
|------------------7------------------------8-------| 2x
|------------------5------------------------8-------|
|---0-0-0-0---0-0------------0-0-0-0---0-0--8-------|
PM  . . . .   . .            . . . .   . .

0:37
Both Guitars      2x
|----------------------------------|-------------------------------------------------|
|----------------------------------|-------------------------------------------------|
|----------------------------------|-------------------------------------------------|
|---0-0-0-0---0-0-0----0-0-0-0-----|--8-8-8-8---8-8-8--8-8-7-7-7-7---7-7-7---7-7-7---|
|---0-0-0-0---0-0-0----0-0-0-0(2x)-|--8-8-8-8---8-8-8--8-8-7-7-7-7---7-7-7---7-7-7---|
|---0-0-0-0---0-0-0----0-0-0-0-----|--8-8-8-8---8-8-8--8-8-7-7-7-7---7-7-7---7-7-7---|

0:52
Guitar 1
|---------------------|--------------10-------------------------------|
|-----------*13-------|-----------13----13-11-10(hold on second time)-|
|--*9--*10------------|--*9--*10--------------------------------------|
|---------------(6x)--|-----------------------------------------------|  2x
|---------------------|-----------------------------------------------|
|---------------------|-----------------------------------------------|

Guitar 2          2x
|----------------------------------|-------------------------------------------------|
|----------------------------------|-------------------------------------------------|
|----------------------------------|-------------------------------------------------|
|---0-0-0-0---0-0-0----0-0-0-0-----|--8-8-8-8---8-8-8--8-8-7-7-7-7---7-7-7---7-7-7---|
|---0-0-0-0---0-0-0----0-0-0-0(2x)-|--8-8-8-8---8-8-8--8-8-7-7-7-7---7-7-7---7-7-7---|
|---0-0-0-0---0-0-0----0-0-0-0-----|--8-8-8-8---8-8-8--8-8-7-7-7-7---7-7-7---7-7-7---|

1:08
Chorus
Guitar 1                 2x
|------------------|------------------------------------|----------------|
|-(10)============-|------------------------------------|---------6------|
|------------------|-10----------------5----------------|---7--7---------|
|------------------|-10----------------5----------------|---7-------(2x)-|
|------------------|-8---------------3-3---------5--7---|---5------------|
|------------------|------------------------------------|----------------|

Guitar 2 (figure out the strumming pattern on your own)
|-------------------------------------------------------|
|-------------------------------------------------------|
|---7---------------------------------------------------|
|---7----------------3-----------------5----------------| 2x
|---5----------------3-----------------5----------------|
|---0----------------3-----------------5----------------|

1:23
Guitar 1
|----------------------------------------------------------------------|
|----------------------------------------------------------------------|
|--------------------------------------------------------9/11\7b(9)----|
|----------------------------------------------------------------------|
|----------------------------------------------------------------------|
|---0-0-0-0---0-0----0-0-0-0---0-0----0-0-0-0---0---0-0----------------|
PM  . . . .   . .    . . . .   . .    . . . .   .   . .

Guitar 2
|----------------------------------------------------------------------|
|----------------------------------------------------------------------|
|----------------------------------------------------------------------|
|--------------------------------------------------------10/12\11b(10)-|
|----------------------------------------------------------------------|
|---0-0-0-0---0-0----0-0-0-0---0-0----0-0-0-0---0---0-0----------------|
PM  . . . .   . .    . . . .   . .    . . . .   .   . .

1:27
Verse 2
Both Guitars    2x
|----------------------------------|-------------------------------------------------|
|----------------------------------|--------second time end here, slide down---------|
|----------------------------------|-----------------------V-------------------------|
|---0-0-0-0---0-0-0----0-0-0-0-----|--8-8-8-8---8-8-8--8-8-7-7-7-7---7-7-7---7-7-7---|
|---0-0-0-0---0-0-0----0-0-0-0(2x)-|--8-8-8-8---8-8-8--8-8-7-7-7-7---7-7-7---7-7-7---|
|---0-0-0-0---0-0-0----0-0-0-0-----|--8-8-8-8---8-8-8--8-8-7-7-7-7---7-7-7---7-7-7---|

Guitar 2 continues this riff.

1:42
Guitar 1
|---------------------------------|-------------------------------------------------|
|---5-5-5-5---5-5-5----5-5-5-5----|--1-1-1-1---1-1-1--1-1-0-0-0-0---0-0-0---0-0-0---|
|---7-7-7-7---7-7-7----7-7-7-7----|--3-3-3-3---3-3-3--3-3-2-2-2-2---2-2-2---2-2-2---|
|---7-7-7-7---7-7-7----7-7-7-7(2x)|--3-3-3-3---3-3-3--3-3-2-2-2-2---2-2-2---2-2-2---|
|---5-5-5-5---5-5-5----5-5-5-5----|--1-1-1-1---1-1-1--1-1-0-0-0-0---0-0-0---0-0-0---|
|---------------------------------|-------------------------------------------------|

|----------8--------|---------8--10-8--6--5---|
|---5--6------------|--5--6-------------------|
|-------------------|-------------------------|
|-------------(6x)--|-------------------------|
|-------------------|-------------------------|
|-------------------|-------------------------|

Chorus (1:56)
After Chorus Riff
Both Guitars
|-------           |--------------|
|-------           |--------------|
|-------           |---77777777---|
|---0--- Repeat... |---77777777---|
|---0---           |---55555555---|
|---0---           |--------------|
PM  .

2:41
Solo
Guitar 1
|-----------------10~~~~~(10)(10)~~(10)(10)-8--0-00-13-12b-0-13-0-12-12b---|
|----------------/9b(10)---------------------------------------------------|
|--------------------------------------------------------------------------|
|---12-----x-xxxx----------------------------------------------------------|
|---12-----x-xxxx----------------------------------------------------------|
|---12-----x-xxxx----------------------------------------------------------|
PM                                               ..        .    .

|-----------------------------------------------|
|------13---------------------------------------|
|------------/9/10~~~--10h12p10\9h10p9\7h9~~~---|
|---12----12~-----------------------------------|
|-----------------------------------------------|
|-----------------------------------------------|

|---13-10-0-15-12-0-17-13-0-15-12-0-13-10-0-10-15-12-0-17-13-0-18-17-0-17-13-0-13-10-0---|
|----------------------------------------------------------------------------------------|
|----------------------------------------------------------------------------------------|
|----------------------------------------------------------------------------------------|
|----------------------------------------------------------------------------------------|
|----------------------------------------------------------------------------------------|

|----------------------------------------------------------|
|---------13-----------------------------------*13-15~~~---|
|---10-9-----10-9------------------*12-*14-*15-------------|
|------------------*10-*12-*14-*15-------------------------|
|----------------------------------------------------------|
|----------------------------------------------------------|

Guitar 2
Play Chorus

2:59
Chorus 2x

3:29
Outro
Guitar 1
|--------------------------------------------------|
|-----------------------14--------------------14---|
|---15-14-15-14-15-14-15--15-14-15-14-15-14-15-----|
|--------------------------------------------------| 3x
|--------------------------------------------------|
|--------------------------------------------------|
PM  .  .  .  .  .  .  .   .  .  .  .  .  .  .

|------------------------------------------------------------|
|-----------------------14-----------------------------------|
|---15-14-15-14-15-14-15--15-14-15--14-15-14-14-15-14-12~~---| End
|------------------------------------------------------------|
|------------------------------------------------------------|
|------------------------------------------------------------|
PM  .  .  .  .  .  .  .   .  .  .

Guitar 2
|----------------------|
|----------------------|
|----------------------|
|------------------0---| 4x
|------------------0---|
|---0-0-0-0---0-0--0---|
PM  . . . .   . .

End
|-------|
|-------|
|-------|
|---0---|
|---0---|
|---0---|
Добавлено: 17.07.2012
Другие материалы по этой песне:
  • Аккорды и текст

Страница создана 20.04.2012
http://primanota.ru/disciple/liar-chords.htm
Привет, Гость.
Предлагаем пройти революционный курс по гитаре.
Подарок от PrimaNota.Ru, забирай!