PrimaNota.ru - самый крупный в мире бесплатный архив песенных текстов, аккордов, табулатур и нот


Disciple - I Just Know - текст песни, таба, бас-таба, видео

Регистрация Запомнить меня
Войти через:  Facebook Google Twitter Vk Yandex Mail.ru

Disciple - I Just Know - текст песни, таба, бас-таба, видео

Печатать
Просмотров: 145
intro:I just know Jesus the way,I just know Jesus is the truth,
   I just know Jesus is the life,I know Jesus is my God!


  e---------------------------------------------------------|
  B---------------------------------------------------------|
  G---------------------------------------------------------|play
  D--------------------------------------------------0------| 2x's
  A--2-2--2-2--2-2--2-2--2-2--2-2--2-2--2-2--2-2-2-2-2------|
  E--0-0--0-0--0-0--0-0--0-0--0-0--0-0--0-0--0-0-0-0-3------|

  e----------------------------------------------------------|
  B----------------------------------------------------------|
  G----------------------------------------------------------|
  D----------------------------------------------------------|
  A-2-2--2-2-2--2-2-2-2--2-2-2-2--2-2-2-2--2-2-2-2--2-2-2-2--|
  E-0-0--0-0-0--0-0-0-0--0-0-0-0--0-0-0-0--0-0-0-0--0-0-0-0--|


                   sl      p.m....               p.m...
  e--------------------|-------------------------------------|
  B--------------------|-------------------------------------|
  G--------------------|-------------------------------------|
  D--------------------|-------------------------------------|
  A-2-2-2-2--2-2-------|---------2-2--2--2-2-2----------2-2--|
  E-0-0-0-0--0-0-12-\--|-5-4-3-2-0-0--0--0-0-0--5-4-3-2-0-0--|


              p.m.....              p.m......
  e----------------------------------------------------------|
  B----------------------------------------------------------|end of
  G----------------------------------------------------------|intro..
  D----------------------------------------------------------|
  A--2--2-2-2----------2-2--2--2-2-2----------2-2--2--2-2-2--|
  E--0--0-0-0--5-4-3-2-0-0--0--0-0-0--5-4-3-2-0-0--0--0-0-0--|




  VERSE:

  e-----------------------------------------------------------|
  B-----------------------------------------------------------|
  G-----------------------------------------------------------|
  D-----------2-2-2/5--------2-2-2/5--------2-2-2/5-------2-2-|
  A----2/7~~~~2-2-2/5-5/7~~~~2-2-2/5-5/7~~~~2-2-2/5-5/7~~~2-2-|
  E-----------------------------------------------------------|

  e-----------------------------------------------------------|
  B-----------------------------------------------------------|
  G-----------------------------------------------------------|
  D--2/5--------2-2-2/5--------2-2-2/5--------2-2-2/5---------|
  A--2/5-5/7~~~~2-2-2/5-5/7~~~~2-2-2/5-5/7~~~~2-2-2/5-5/7~~~~-|
  E-----------------------------------------------------------|

  e---------|------------------------------------------------|
  B---------|------------------------------------------------|
  G---------|------------------------------------------------|
  D--2--5-4-|-2---5--5-5/7--2---5--5-5/7--2---5--5-5/7--5--4-|
  A--2--5-5-|-2---5--5-5/7--2---5--5-5/7--2---5--5-5/7--7--5-|
  E---------|------------------------------------------------|

  e-----------------------------------------------------------|
  B-----------------------------------------------------------|
  G-----------------------------------------------------------|
  D--2----2---5--5-5/7--2---5--5-5/7--2---5--5-5/7--5--4--2---|
  A--3b4~~2---5--5-5/7--2---5--5-5/7--2---5--5-5/7--7--5--3b4-|
  E--a.h.-----------------------------------------------------|a.h.


   CHORUS:
  e----------------------------------------------------------|
  B----------------------------------------------------------|
  G----------------------------------------------------------|
  D----------------------------------------------------------|
  A----------------------------------------------------------|
  E-0-0-0-0-0-0-0-0-00-0-0-0-0-0-0-0-0-00-0-0-0-0-0-0-0-0-00-|




  e--------------------|--------------------------------------|
  B--------------------|--------------------------------------|
  G--------------------|--------------------------------------|
  D--------------------|--------------------------------------|
  A--------------------|2-2-2-2-2-2-2-2-22-2-2-2-2-2-2-2-2-22-|
  E-0-0-0-0-0-0-0-0-00-|0-0-0-0-0-0-0-0-00-0-0-0-0-0-0-0-0-00-|


                                           p.m....
  e---------------------------------------|----------------------|
  B---------------------------------------|----------------------|
  G---------------------------------------|----------------------|
  D---------------------------------------|----------------------|
  A-2-2-2-2-2-2-2-2-22-2-2-2-2-2-2-2-2-22-|--------2-2--2--2-2-2-|
  E-0-0-0-0-0-0-0-0-00-0-0-0-0-0-0-0-0-00-|5-4-3-2-0-0--0--0-0-0-|


   p.m.....              p.m.....              p.m.....
  e----------------------------------------------------------|
  B----------------------------------------------------------|
  G----------------------------------------------------------|end
  D----------------------------------------------------------|chorus
  A---------2-2--2--2-2-2---------2-2--2--2-2-2---------2-2--|
  E-5-4-3-2-0-0--0--0-0-0-5-4-3-2-0-0--0--0-0-0-5-4-3-2-0-0--|


   BRIDGE:
  e----------------------------------------------------------|
  B----------------------------------------------------------|
  G----------------------------------------------------------|
  D----5-5-5-5-2--------2----------5-5-5-5-2-------0h2-------|
  A----5-5-5-5-2--------2----------5-5-5-5-2-------0h2-------|
  E------------00000000-00000000-----------00000000-00000000-|

  e------------------------------------------------------------|
  B------------------------------------------------------------|
  G------------------------------------------------------------|
  D---5-5-5-5-0h2-------0h2--------5-5-5-5-0h2-------0h2-------|
  A---5-5-5-5-0h2-------0h2--------5-5-5-5-0h2-------0h2-------|
  E-------------00000000-00000000------------00000000-00000000-|




  e----------------------|-------------------------------------|
  B----------------------|-------------------------------------|
  G----------------------|-------------------------------------|
  D--0h2-------0h2-------|-----2------2--5--7--2------2--5--7--|
  A--0h2-------0h2-------|-----2------2--5--7--2------2--5--7--|
  E----00000000-00000000-|-12/-0-0000-0--------0-0000-0--------|

SOLO:play this riff 5x's
                                     w/ solo
  e---------------------------------|-----------------------------|
  B---------------------------------|-----------------------------|
  G---------------------------------|-----------------------------|
  D--2------2--5--7--2------2--5--7-|---2------2--5--7------------|
  A--2------2--5--7--2------2--5--7-|---2------2--5--7------------|
  E--0-0000-0--------0-0000-0-------|---0-0000-0------------------|


                         p.m.   p.m.
     e----------------------------------7h9p7-10b11-7h9p7-10b11--|
  B--9b11---8h9b11--------------7~~~~----------------------------|
  G--9b11---8h9b11-------7~~7h9----------------------------------|
  D------------------7h9-----------------------------------------|
  A--------------------------------------------------------------|
  E--------------------------------------------------------------|


                                                     | Slowly bend this note
   e--7h9p7-10b11-7h9p7-10b11-7h9p7-10b11-10-10-10-10-10-10-10-10--|
  B----------------------------------------------------------------|
  G----------------------------------------------------------------|
  D----------------------------------------------------------------|
  A----------------------------------------------------------------|
  E----------------------------------------------------------------|


     one step                            |hold this note & let it
                                          fade out during vs.
  e--10-10-10b12r10-10b12r10-10b12r10-10b12-----------------------|
  B---------------------------------------------------------------|
  G---------------------------------------------------------------|
  D---------------------------------------------------------------|
  A---------------------------------------------------------------|
  E---------------------------------------------------------------|

      After solo play verse & chorus then ending

        ENDING:
     e------------------------------------------------|
  B--------------------------------------------0------|
  G---------------------------------------------------|
  D--2h5-2h5-2h5-2h5-2h5-2h5-2h5-2h5-2h5-5-5-5-2------|
  A--2h5-2h5-2h5-2h5-2h5-2h5-2h5-2h5-2h5-5-5-5-2------|
  E---------------------------------------------------|

  e--------------------------------------------0--|
  B--------------------------------------------0--|
  G-----------------------------------------------|
  D--2h5-2h5-2h5-2h5-2h5-2h5-2h5-2h5-2h5-5-5-5-2--|
  A--2h5-2h5-2h5-2h5-2h5-2h5-2h5-2h5-2h5-5-5-5-2--|
  E--------------------------------------------0--|
Добавлено: 06.03.2012
Другие материалы по этой песне:

Страница создана 06.03.2012
http://primanota.ru/disciple/i-just-know-chords.htm
Привет, Гость.
Предлагаем пройти революционный курс по гитаре.
Подарок от PrimaNota.Ru, забирай!