PrimaNota.ru - самый крупный в мире бесплатный архив песенных текстов, аккордов, табулатур и нот


Disciple - Big Bad Wolf - текст песни, таба, видео

Регистрация Запомнить меня
Войти через:  Facebook Google Twitter Vk Yandex Mail.ru

Disciple - Big Bad Wolf - текст песни, таба, видео

Печатать
Просмотров: 147
Intro 2x hold out that "F" chord (you'll know when)

Eb |------------------------------------------------------------------|
Bb |------------------------------------------------------------------|
Gb |------------------------------------------------------------------|
Db |-5-3-6-3-5--5-3-6-3-5--5-3-6-3-5--5-3-6-3-5-----------------------|
Ab |-5-3-6-3-5--5-3-6-3-5--5-3-6-3-5--5-3-6-3-5-----------------------|
Db |-5-3-6-3-5--5-3-6-3-5--5-3-6-3-5--5-3-6-3-5-----------------------|

	Verse
	 It's really important to listen to his strum pattern in here cause
that's where almost 		all the character of this song is. I'll try to
make the tab look like his strum :-|

Eb |--------------------------------------|---------------------------|
Bb |--------------------------------------|---------------------------|
Gb |--------------------------------------|---------------------------|
Db |-----(0)---(0)(0)----(0)(0)----(0)(0)-|---------------------------|
Ab |-0-0-00-0-000-00--0-000-00--0-000-00--|---------------------------|
Db |-0-0-00-0-000-00--0-000-00--0-000-00--|---------------------------|

	Play this 2x then				this 4x

Eb |------------------------------------------------|-----------------|
Bb |------------------------------------------------|-----------------|
Gb |------------------------------------------------|-----------------|
Db |-0-0--xxx0-xxx0-xx0-3p0--0-0--xxx0-xxx0-xx0-3p0-|-3-3-6-xxx-6-----|
Ab |-0-0--xxx0-xxx0-xx0-3p0--0-0--xxx0-xxx0-xx0-3p0-|-3-3-6-xxx-6-----|
Db |-0-0--xxx0-xxx0-xx0-3p0--0-0--xxx0-xxx0-xx0-3p0-|-3-3-6-xxx-6-----|

	Then you have this 4x end on that "C" the "I knocked....." play just an
open "Cb" make sure you listen well to his strummin' here

Eb |-----------------|-----|-------------------------------------------|
Bb |-----------------|-----|-------------------------------------------|
Gb |-----3------3----|-----|-------------------------------------------|
Db |-----3------3----|--1--|-------------------------------------------|
Ab |-0-0-1-0-00-1----|--1--|--0----------------------------------------|
Db |-0-0---0-00------|--1--|--0----------------------------------------|

	That's pretty much it for that, here's his little lead fill

Eb |------------------------------------------------------------------|
Bb |------------------------------------------------------------------|
Gb |------------------------------------------------------------------|
Db |------------------3h5/6\5~~~-3h5p3--------------------------------|
Ab |--3/5---3h5/6\5~~------------------3/5----------------------------|
Db |------------------------------------------------------------------|
Добавлено: 27.03.2012
Другие материалы по этой песне:
  • Аккорды и текст

Страница создана 27.03.2012
http://primanota.ru/disciple/big-bad-wolf-chords.htm
Привет, Гость.
Предлагаем пройти революционный курс по гитаре.
Подарок от PrimaNota.Ru, забирай!