PrimaNota.ru - самый крупный в мире бесплатный архив песенных текстов, аккордов, табулатур и нот


Discharge - Never Again - таба, бас-таба, видео

Регистрация Запомнить меня
Войти через:  Facebook Google Twitter Vk Yandex Mail.ru

Discharge - Never Again - таба, бас-таба, видео

Печатать
Просмотров: 184
Уроки эстрадного вокала в Санкт-Петербурге
 Discharge

 Never Again      Guitar Tab
              
e----------------------------------------------------|
B----------------------------------------------------|
G------10-10-10---10-10-10---10-10-10-------6--------| x3
D------10-10-10---10-10-10---10-10-10-------6--------|
A------8--8--8----8--8--8----8--8--8--------4--------|
E----------------------------------------------------|


e----------------------------------------------------|
B----------------------------------------------------|
G------10-10-10-10-10-10-10-10-10-10-10-------6-6-6--| x4
D------10-10-10-10-10-10-10-10-10-10-10-------6-6-6--|
A------6--6--6--6--6--6--6--6--6--6--6--------4-4-4--|
E----------------------------------------------------|


          x|palm mute|x 
e-----------------------------------|
B------------x-x-x-x----------------|
G----4-4-4-4-4-4-4-4-4/-3-5-3-5-----| x4
D----4-4-4-4-4-4-4-4-4/-3-5-3-5-----|
A----2-2-2-2-2-2-2-2-2/-1-3-1-3-----|
E-----------------------------------|

.... and repeat

  tab by yann 
Добавлено: 29.06.2012
Другие материалы по этой песне:

Страница создана 24.04.2012
http://primanota.ru/discharge/never-again-chords.htm
Привет, Гость.
Предлагаем пройти революционный курс по гитаре.
Подарок от PrimaNota.Ru, забирай!