PrimaNota.ru - самый крупный в мире бесплатный архив песенных текстов, аккордов, табулатур и нот


Discharge - Final Blood Bath - текст песни, таба, бас-таба, видео

Регистрация Запомнить меня
Войти через:  Facebook Google Twitter Vk Yandex Mail.ru

Discharge - Final Blood Bath - текст песни, таба, бас-таба, видео

Печатать
Просмотров: 259
-------------------------------------------------------------------------------
                             The Final Blood Bath - Discharge
-------------------------------------------------------------------------------
Tabbed by: JAmes Blobb

Tuning: E

Intro
e|---------------------------------------------------------------------------|
B|---------------------------------------------------------------------------|
G|---------------------------------------------------------------------------|
D|555555555555555------------------------------------------------------------|
A|333333333333333------------------------------------------------------------|
E|---------------------------------------------------------------------------|
  ***************

Riff 1
e|---------------------------------------------------------------------------|
B|---------------------------------------------------------------------------|
G|---------------------------------------------------------------------------|
D|5-5---5-5-5---5-5-5--5-5-5-------------------------------------------------|
A|3-3---3-3-3---3-3-3--3-3-3-------------------------------------------------|
E|---------------------------------------------------------------------------|

Riff 2
e|---------------------------------------------------------------------------|
B|---------------------------------------------------------------------------|
G|---------------------------------------------------------------------------|
D|5-5---5-5-5---5-6-6-6-5-5-5------------------------------------------------|
A|3-3---3-3-3---3-6-6-6-5-5-5------------------------------------------------|
E|---------------------------------------------------------------------------|

************************************

| /   slide up
| \   slide down
| h   hammer-on
| p   pull-off
| ~   vibrato
| +   harmonic
| x   Mute note
| b   Bend
| pb  Pre-bend
| br  Bend release
| pbr Pre-bend release
| brb Bend release bend

************************************
Добавлено: 17.04.2015
Другие материалы по этой песне:

Страница создана 16.04.2012
http://primanota.ru/discharge/final-blood-bath-chords.htm
Привет, Гость.
Предлагаем пройти революционный курс по гитаре.
Подарок от PrimaNota.Ru, забирай!