PrimaNota.ru - самый крупный в мире бесплатный архив песенных текстов, аккордов, табулатур и нот


Discharge - Drunk With Power - текст песни, таба, бас-таба, видео

Регистрация Запомнить меня
Войти через:  Facebook Google Twitter Vk Yandex Mail.ru

Discharge - Drunk With Power - текст песни, таба, бас-таба, видео

Печатать
Просмотров: 191
Уроки эстрадного вокала в Санкт-Петербурге
Main Riff (Pre-Verse and Verse 1)                                                     x5
e||------------------------------------------|------------------------------------------|
B||*-----------------------------------------|------------------------------------------|
G||------------------------------------------|------------------------------------------|
D||--12--12-12-12-12-12--12--12-12-12-12-12--|--12--12-12-12-12-12--12--12-12-12-12-12--|
A||*-10--10-10-10-10-10--10--10-10-10-10-10--|--10--10-10-10-10-10--10--10-10-10-10-10--|
E||------------------------------------------|------------------------------------------|


e|-----------------------------------------|-----------------------------------------||
B|-2---2--2--2--2--2---2---2--2--2--2--2---|-2---2--2--2--2--2---2---2--2--2--2--2--*||
G|-4b6-4b64b64b64b64b6-4b6-4b64b64b64b64b6-|-4b6-4b64b64b64b64b6-4b6-4b64b64b64b64b6-||
D|-----------------------------------------|---------------------------------------- ||
A|-----------------------------------------|----------------------------------------*||
E|-----------------------------------------|-----------------------------------------||
   =================================================================================
  "For   how    long   shall   we   tolerate  this     fools    drunk     with power"   


Chorus 1                                        x4
e||----------------------|------------------------||
B||*---------------------|-----------------------*||
G||----------------------|------------------------||
D||----------------------|------------------------||
A||*--7--------/9--------|--7--------/10---------*||
E||---5--------/7--------|--5--------/8-----------||
    "Drunk with power       obsessed with death
     Death and destruction  drunk with power"

Main Riff (Pre-Verse and Verse 2)                                                     x5
e||------------------------------------------|------------------------------------------|
B||*-----------------------------------------|------------------------------------------|
G||------------------------------------------|------------------------------------------|
D||--12--12-12-12-12-12--12--12-12-12-12-12--|--12--12-12-12-12-12--12--12-12-12-12-12--|
A||*-10--10-10-10-10-10--10--10-10-10-10-10--|--10--10-10-10-10-10--10--10-10-10-10-10--|
E||------------------------------------------|------------------------------------------|

        with    you        and            I     as                 disposable

e|-----------------------------------------|-----------------------------------------||
B|-2---2--2--2--2--2---2---2--2--2--2--2---|-2---2--2--2--2--2---2---2--2--2--2--2--*||
G|-4b6-4b64b64b64b64b6-4b6-4b64b64b64b64b6-|-4b6-4b64b64b64b64b6-4b6-4b64b64b64b64b6-||
D|-----------------------------------------|---------------------------------------- ||
A|-----------------------------------------|----------------------------------------*||
E|-----------------------------------------|-----------------------------------------||
   =================================================================================
    "A  giant game of   chess   they   play     
   pieces"


Chorus 2                                        x4
e||----------------------|------------------------||
B||*---------------------|-----------------------*||
G||----------------------|------------------------||
D||----------------------|------------------------||
A||*--7--------/9--------|--7--------/10---------*||
E||---5--------/7--------|--5--------/8-----------||
    "Drunk with power       obsessed with death
     Death and destruction  drunk with power"


Main Riff (Solo-Backing)                                                              x6
e||------------------------------------------|------------------------------------------|
B||*-----------------------------------------|------------------------------------------|
G||------------------------------------------|------------------------------------------|
D||--12--12-12-12-12-12--12--12-12-12-12-12--|--12--12-12-12-12-12--12--12-12-12-12-12--|
A||*-10--10-10-10-10-10--10--10-10-10-10-10--|--10--10-10-10-10-10--10--10-10-10-10-10--|
E||------------------------------------------|------------------------------------------|



e|-----------------------------------------|-----------------------------------------||
B|-2---2--2--2--2--2---2---2--2--2--2--2---|-2---2--2--2--2--2---2---2--2--2--2--2--*||
G|-4b6-4b64b64b64b64b6-4b6-4b64b64b64b64b6-|-4b6-4b64b64b64b64b6-4b6-4b64b64b64b64b6-||
D|-----------------------------------------|---------------------------------------- ||
A|-----------------------------------------|----------------------------------------*||
E|-----------------------------------------|-----------------------------------------||
   =================================================================================
Solo

e|-----------------|-------------|-----------------|-------------|
B|-----------------|-------------|-----------------|-------------|
G|-----------------|-------------|-----------------|-------------|
D|-----------------|-------------|-----------------|-------------|
A|-----------------|-------------|-----------------|-------------|
E|-2019181716151413|12111098765--|-2019181716151413|12111098765--|
   Pickslide

e|------------------|------------------|-----------------|----------------|
B|------------------|------------------|-----------------|----------------|
G|------------------|------------------|-----------------|----------------|
D|------------------|------------------|-----------------|----------------|
A|-15/21212121\1515-|-15/21212121\1515-|-----------------|----------------|
E|------------------|------------------|-----------------|----------------|



e|--------------------------------------------------------|--------------------------------------------|
B|--------------------------------------------------------|--------------------------------------------|
G|--20b22-1717171717171717--20b22-1717171717171717--20b22-|-1717171717171717--20b22-1717171717171717---|
D|--------------------------------------------------------|--------------------------------------------|
A|--------------------------------------------------------|--------------------------------------------|
E|--------------------------------------------------------|--------------------------------------------|



e|--15--------(15)--------|--------------------------|
B|--18b20-----r18b20r18b20|r18b20r18b20r18b20r18b20--|
G|------------------------|--------------------------|
D|------------------------|--------------------------|
A|------------------------|--------------------------|
E|------------------------|--------------------------|


e|--------------------------------------------------------|--------------------------------------------|
B|--------------------------------------------------------|--------------------------------------------|
G|--20b22-1717171717171717--20b22-1717171717171717--20b22-|-1717171717171717--20b22-1717171717171717---|
D|--------------------------------------------------------|--------------------------------------------|
A|--------------------------------------------------------|--------------------------------------------|
E|--------------------------------------------------------|--------------------------------------------|



e|--18--------(18)--------|----------------|-18--------------|----------------|
B|--21b23-----r21b23r21b23|r21b23r21b23r21-|-21b23-----------|--8-------------|
G|------------------------|----------------|-----------------|-10b12----------|
D|------------------------|----------------|-----------------|----------------|
A|------------------------|----------------|-----------------|----------------|
E|------------------------|----------------|-----------------|----------------|



Main Riff (Pre-Verse and Verse 3)                                                     x2
e||------------------------------------------|------------------------------------------|
B||*-----------------------------------------|------------------------------------------|
G||------------------------------------------|------------------------------------------|
D||--12--12-12-12-12-12--12--12-12-12-12-12--|--12--12-12-12-12-12--12--12-12-12-12-12--|
A||*-10--10-10-10-10-10--10--10-10-10-10-10--|--10--10-10-10-10-10--10--10-10-10-10-10--|
E||------------------------------------------|------------------------------------------|


e|-----------------------------------------|-----------------------------------------||
B|-2---2--2--2--2--2---2---2--2--2--2--2---|-2---2--2--2--2--2---2---2--2--2--2--2--*||
G|-4b6-4b64b64b64b64b6-4b6-4b64b64b64b64b6-|-4b6-4b64b64b64b64b6-4b6-4b64b64b64b64b6-||
D|-----------------------------------------|---------------------------------------- ||
A|-----------------------------------------|----------------------------------------*||
E|-----------------------------------------|-----------------------------------------||
   =================================================================================
  "For   how    long   shall   we   tolerate  this     fools    drunk     with power"   


Chorus 3                                        x4
e||----------------------|------------------------||
B||*---------------------|-----------------------*||
G||----------------------|------------------------||
D||----------------------|------------------------||
A||*--7--------/9--------|--7--------/10---------*||
E||---5--------/7--------|--5--------/8-----------||
    "Drunk with power       obsessed with death
     Death and destruction  drunk with power


Main Riff (Pre-Verse and Verse 4)                                                     x5
e||------------------------------------------|------------------------------------------|
B||*-----------------------------------------|------------------------------------------|
G||------------------------------------------|------------------------------------------|
D||--12--12-12-12-12-12--12--12-12-12-12-12--|--12--12-12-12-12-12--12--12-12-12-12-12--|
A||*-10--10-10-10-10-10--10--10-10-10-10-10--|--10--10-10-10-10-10--10--10-10-10-10-10--|
E||------------------------------------------|------------------------------------------|

        with    you        and            I     as                 disposable

e|-----------------------------------------|-----------------------------------------||
B|-2---2--2--2--2--2---2---2--2--2--2--2---|-2---2--2--2--2--2---2---2--2--2--2--2--*||
G|-4b6-4b64b64b64b64b6-4b6-4b64b64b64b64b6-|-4b6-4b64b64b64b64b6-4b6-4b64b64b64b64b6-||
D|-----------------------------------------|---------------------------------------- ||
A|-----------------------------------------|----------------------------------------*||
E|-----------------------------------------|-----------------------------------------||
   =================================================================================
    "A  giant game of   chess   they   play     
   pieces"

Chorus 5                                        x4
e||----------------------|------------------------||
B||*---------------------|-----------------------*||
G||----------------------|------------------------||
D||----------------------|------------------------||
A||*--7--------/9--------|--7--------/10---------*||
E||---5--------/7--------|--5--------/8-----------||
    "Drunk with power       obsessed with death
     Death and destruction  drunk with power"
     Power      power       power     power"

Outro
e|------------------------------------------|------------------------------------------|
B|------------------------------------------|------------------------------------------|
G|------------------------------------------|------------------------------------------|
D|--12--12-12-12-12-12--12--12-12-12-12-12--|--12--12-12-12-12-12--12--12-12-12-12-12--|
A|--10--10-10-10-10-10--10--10-10-10-10-10--|--10--10-10-10-10-10--10--10-10-10-10-10--|
E|------------------------------------------|------------------------------------------|


e|----------------|
B|----------------|
G|----------------|
D|--11------------|
A|--9-------------|
E|----------------|


Tablature Legend
----------------
 h   - hammer-on
 p   - pull-off
 b   - bend
 =   - hold bend; also acts as connecting device for hammers/pulls

Добавлено: 10.11.2015
Другие материалы по этой песне:

Страница создана 02.03.2012
http://primanota.ru/discharge/drunk-with-power-chords.htm
Привет, Гость.
Предлагаем пройти революционный курс по гитаре.
Подарок от PrimaNota.Ru, забирай!