PrimaNota.ru - самый крупный в мире бесплатный архив песенных текстов, аккордов, табулатур и нот


Disavowed - Abolition Of Impediment - текст песни, таба, видео

Регистрация Запомнить меня
Войти через:  Facebook Google Twitter Vk Yandex Mail.ru

Disavowed - Abolition Of Impediment - текст песни, таба, видео

Печатать
Просмотров: 86
--- DISAVOWED ---
                         "Abolition Of Impediment"
                     From album: "Perceptive Deception"
                     

                            TABULATURE LEGEND:
                   " - tremolo             h - hammer on
                   ~ - vibrato             \ - slide down
                   p - pull off            / - slide down
                  tr - tremolo picking     ^ - pinch harmonics
                   = - sustained note      b - bend string
                p.m. - palm muting         t - tapping

Tuning is D [D, G, C, F, A, D]

[Part 1 (x2)]
||-----------------|-----------------|-----------------|-----------------|
||-----------------|-----------------|-----------------|-----------------|
||-----------------|-----------------|-----------------|-----------------|
||-----------------|-----3-2---------|-----------------|-----------------|
||-----------------|---------4-3-----|-----------------|-----5-4---------|
||-1-3-1-2-2-3-3-4-|-1-2---------2-3-|-2-3-3-4-1-2-2-3-|-0-1-----6-5-1-2-|
   . . . . . . . .   . .         . .   . . . . . . . .   . .         . .

-----------------|-----------------|-----------------|-----------------||
-----------------|-----------------|-----------------|-----------------||
-----------------|-----------------|-----------------|-----------------||
-----------------|-----3-2---------|-----------------|-----------------||
-----------------|---------4-3-----|---------3-2-----|-----5-4---------||
-1-3-1-2-2-3-3-4-|-1-2---------2-3-|-2-3-3-4-----4-3-|-0-1-----6-5-1-2-||
 . . . . . . . .   . .         . .   . . . .           . .         . .

[Part 2 (x2)]
||--------------------------------|--------------------------------|
||--------------------------------|--------------------------------|
||--------------------------------|--------------------------------|
||---------5----------------------|---------5----------------------|
||-4-4-4-4-3--4-4-4-4-4-4-3-3-3-3-|-4-4-4-4-3--4-4-5-5-5-5-3-3-5-5-|
||-2-2-2-2-3--2-2-2-2-2-2-1-1-1-1-|-2-2-2-2-3--2-2-3-3-3-3-1-1-3-3-|
   . . . .    . . . . . . . . . .   . . . .    . . . . . . . . . .

--------------------------------|---------------------------------||
--------------------------------|---------------------------------||
--------------------------------|---------------------------------||
---------5----------------------|-------------4-4-4-4-------------||
-4-4-4-4-3--4-4-4-4-4-4-2-2-3-3-|-4-4-4-4-5-5-2-2-2-2-4-4-3-3-3-3-||
-2-2-2-2-3--2-2-2-2-2-2-0-0-1-1-|-2-2-2-2-3-3---------2-2-1-1-1-1-||
 . . . .    . . . . . . . . . .   . . . . . . . . . . . . . . . .

[PART 1 (x2)]

[Part 3 (x2)]
||----------------------------------|----------------------------------|
||----------------------------------|----------------------------------|
||----------------------------------|----------------------------------|
||----------------------------------|---------------------44443333-----|
||-----4444------------444455554444-|-------------44445555-------------|
||-2222----222211112222-------------|-222211112222----------------3333-|


----------------------------------|-[ending 1]-----------------------||
----------------------------------|----------------------------------||
----------------------------------|----------------------------------||
----------------------------------|----------------------------------||
-----4444------------55554444-----|-44443333------------44443333-----||
-2222----222211112222--------5555-|---------444433335555--------1111-||

-|-[ending 2]-----------------------||
-|----------------------------------||
-|----------------------------------||
-|----------------------------------||
-|-44443333------------4444-3-------||
-|---------444433335555-----1-------||
                            .
[PART 2 (x2)]

[Part 4 (x2)]
||-------------------------------------|------------------------------------||
||-------------------------------------|------------------------------------||
||-------------------------------------|------------------------------------||
||-------------------------------------|------------------------------------||
||-2-------3/4-3-------4/6------5/6-4--|-2-------3/4-3-------4/6------5/6-4-||
||-0--0000-1/2-1--0000-2/4-0000-3/4-2--|-0--0000-1/2-1--0000-2/4-0000-3/4-2-||
   .                                     .

[Part 5 (x2)]
||------------------------------------------|
||------------------------------------------|
||------------------------------------------|
||------------------------------------------|
||-2--3-3-3-4--2--3-3-3-2-------------------|
||-0--1-1-1-2--0--1-1-1-0--1h2p1-3h4p3-[x3]-|
   .  . . . .  .  . . . .

------------------------------------||
------------------------------------||
------------------------------------||
------------------------------------||
-2-------3/4-3-------4/6------5/6-4-||
-0--0000-1/2-1--0000-2/4-0000-3/4-2-||
 .

[Part 6 (x2)]
||-----------------------------------|-------------------------------------|
||-----------------------------------|-------------------------------------|
||-----------------------------------|-------------------------------------|
||-----------------------------------|-------------------------------------|
||-----------------4h5p4-------------|-------------------------------------|
||-0-2-3-2-0-3-4-3-------5-4-0-4-3-2-|-0-2-3-2-0-3-4-3-0-2-3h4p3-0-2-3h4p3-|
   . . . . . . . .       . . . . . .   . . . . . . . . . .       . .

-----------------------------------|-------------------------------------||
-----------------------------------|-------------------------------------||
-----------------------------------|-------------------------------------||
-----------------------------------|-------------------------------------||
-----------------4h5p4-------------|-------------------------------3/4-3-||
-0-2-3-2-0-3-4-3-------5-4-0-4-3-2-|-0-2-1h2p1-4h5p4-0-2-4h5p4-0-2-1/2-1-||
 . . . . . . . .       . . . . . .   . .             . .       . .

[PART 5 ]

[Outro]
||--------------------------------------------------------------------------||
||--------------------------------------------------------------------------||
||--------------------------------------------------------------------------||
||--------------------------------------------------------------------------||
||-2--3-3-3-4--2--3-3-3-2-------------------2-------3/4-3-------4/6-------4-||
||-0--1-1-1-2--0--1-1-1-0--1h2p1-3h4p3-[x3]-0--0000-1/2-1--0000-2/4-0000--2-||

[PART 1 (x2)] [PART 3 (x2) with ending 1 only] [PART 2 (x2)] [PART 4 (x2)]
[PART 6] [PART 6 (only 3 bars)]

Ending chord
|-------------|
|-------------|
|-------------|
|-------------|
|-2-----------|
|-0-----------|
  .

END OF SONG
Добавлено: 29.08.2013
Другие материалы по этой песне:

Страница создана 27.04.2012
http://primanota.ru/disavowed/abolition-of-impediment-chords.htm
Привет, Гость.
Предлагаем пройти революционный курс по гитаре.
Подарок от PrimaNota.Ru, забирай!