PrimaNota.ru - самый крупный в мире бесплатный архив песенных текстов, аккордов, табулатур и нот


Disarmonia Mundi - The Shape Of Things To Come - таба, видео

Регистрация Запомнить меня
Войти через:  Facebook Google Twitter Vk Yandex Mail.ru

Disarmonia Mundi - The Shape Of Things To Come - таба, видео

Печатать
Просмотров: 137
This was tabbed all by ear and there are a couple parts missing that I couldn't make 
I'll be tabbing all of - Fragments of D-Generation, Mindtricks and The Isolation Game as 
as I can!

Check out my covers of DM songs too at my youtube page-

http://www.youtube.com/user/Dagget006


Enjoy!

                 Intro Verse

      |----------------------------------------------|
      |----------------------------------------------|
      |---------------8---8/7-------------3\5--------|
      |-0-------------8---8/7-------------3\5--------|
      |-0-------------6---6/5-------------1\3--------|
      |-0-00000000000---0-----00000000000------------|
pm         . . . . . . . . . . .         .            . . . . . . . . . . .


      |----------------------------------------------|
      |----------------------------------------------|
      |---------------8---8/7-------3\5---5\7--------|
      |-0-------------8---8/7-------3\5---5\7--------|    x2
      |-0-------------6---6/5-------1\3---3\5--------|
      |-0-00000000000---0-----00000----00------------|
pm         . . . . . . . . . . .         .            . . . . .          . .

                 Verse

      |---------------------------------------------------------------|
      |---------------------------------------------------------------|
      |---------------------------------------------------------------|
      |-----------------------------------x3--------------------------|    X2
      |----------------------------------------00000000-00-0000000----|
      |-2-0-22^3-0-2-0-2-0-22^3-0-2-0-2-0------00000000-00-0000000----|
pm                                                                                       
        . . . . . . . .   . .   . . . . . . .


      |---------------------------------------------------------------------|
      |---------------------------------------------------------------------|
      |---------------------------------------------------------------------|
      |-22-22-2-8---22-22-2-8---02020---22-22-2-8---------------------------|
      |-22-22-2-8---22-22-2-8---02020---22-22-2-8---------------------*-----|
      |-22-22-2-8---22-22-2-8---02020---22-22-2-8---300-300-300-300-303-----|
pm                                                                                       
                    . . . . . . . . . . . . . . . .

              Intro Verse

      |----------------------------------------------|
      |----------------------------------------------|
      |---------------8---8/7-------------3\5--------|
      |-0-------------8---8/7-------------3\5--------|
      |-0-------------6---6/5-------------1\3--------|
      |-0-00000000000---0-----00000000000------------|
pm         . . . . . . . . . . .         .            . . . . . . . . . . .


      |----------------------------------------------|
      |----------------------------------------------|
      |---------------8---8/7-------3\5---5\7--------|
      |-0-------------8---8/7-------3\5---5\7--------|    x2
      |-0-------------6---6/5-------1\3---3\5--------|
      |-0-00000000000---0-----00000----00------------|
pm         . . . . . . . . . . .         .            . . . . .          . .

On the second repeat, substitute the last two slided chords for:

      |-----------------------------|
      |-----------------------------|
      |------5-------7--------------|
      |----5-------7----------------|
      |--3-----3-5-----5------------|
      |-----------------------------|


           Pre Chorus

      |--------------------------------------------|
      |--------------------------------------------|
      |--------------------------------------------|
      |--222-222-222-222222-222-222-2222222--x2----|
      |--222-222-222-222222-222-222-2222222--------|
      |--222-222-222-222222-222-222-2222222--------|


      |-------------------------------------------------|
      |-------------------------------------------------|
      |-------------------------------------------------|
      |--2222-2222-2222-222222-2222-2222--2222222--x2---|
      |--2222-2222-2222-222222-2222-2222--2222222-------|
      |--2222-2222-2222-222222-2222-2222--2222222-------|
pm       . . . .   . . . .    . . . .   . . . . . .   . . . .   . . . .      . . . . . . .


           Chorus

     |-------------------------------------------------------------|
     |-------------------------------------------------------------|
     |-------------------------------------------------------------|
     |--101010-101010-10101010101010-101010-101010-10101010--------|
     |--101010-101010-10101010101010-101010-101010-10101010--------|
     |--101010-101010-10101010101010-101010-101010-10101010--------|


     |----------------------------------------------------|
     |----------------------------------------------------|
     |----------------------------------------------------|
     |-2222-222-2222222-2222-5555000----------------------|
     |-2222-222-2222222-2222-5555000----------------------|
     |-2222-222-2222222-2222-5555000----------------------|


Then:
-Verse repeats x2
-Prechorus plays only the 2nd part
-Chorus repeats X2


          Interlude (and solo rythm)

     |--------------------------------------------------------------------|
     |--------------------------------------------------------------------|
     |--------------------------------------------------------------------|
     |--------------------------------------------------------------------|
     |--------------------------------------------------------------------|
     |--222-22-222-22-222-22-222-222---222-22-222-22-222-222-222-222------|
pm     . . .   . .   . . .   . .   . . .   . .   . . .   . . .     . . .    . .   . . .  
. .  . . .   . . .   . . .   . . .


             Solo

     |------------------------------------------------------------------|
     |-/8-7-8h7h5-4-5------------------10^12^10-10h8 -------------------|
     |------------------4-5-4--------------------------9~---------------|
     |-------------------------5-4-5~----------------------7-9-7-9------|
     |------------------------------------------------------------------|
     |------------------------------------------------------------------|

|----------------------------------------------------------------------------|
|---------------------------------13h15h1713h15h17-15h17h1915h17h19-19^20~---|
|-----------------14h16h1714h16h17-------------------------------------------|
|-14h16h1714h16h17-----------------------------------------------------------|
|----------------------------------------------------------------------------|
|----------------------------------------------------------------------------|

|---------10----------------------------------------------------------------|
|--10-8-7----0-7-8-10--x8---7-8-10-10^12 10~--------------------------------|
|---------------------------------------------------------------------------|
|-------------------------------------------11^13^11-9-7-9~----9h10h-7h9h7--|
|---------------------------------------------------------------------------|
|---------------------------------------------------------------------------|


|-----------------------------------------------------------------------------|
|-----------------------------------------------------------------------------|
|-----------------------------------------------------------------14h16h17----|
|--5h7h5-5-4---------------------------14h16h17----------14h16h17-------------|
|------------7-5-7------------14h15h17----------14h15h17----------------------|
|--------------------14h15h17-------------------------------------------------|


|------------------------------|
|--15h17h19-19^20~-------------|
|------------------------------|
|------------------------------|
|------------------------------|
|------------------------------|


           Post Solo Verse

 |----------------------------------------------------------------------------|
 |----------------------------------------------------------------------------|
 |----5-----5-----5-----5-----5-----5-----7-----7-----9-----9-----9-----9-----|
 |----5-----5-----5-----5-----5-----5-----7-----7-----9-----9-----9-----9-----|
 |-33-3-333-3-333-3-333-3-333-3-333-3-555-5-555-5-777-7-777-7-777-7-777-7-----|
 |----------------------------------------------------------------------------|

|-----------------------------------|
|-----------------------------------|
|------9-----9-----7-----7----------|
|------9-----9-----7-----7----------|
|--777-7-777-7-555-5-555-5----------|
|-----------------------------------|

then:
-Prechorus the 2nd part only x2
-Chorus x2


            Outro

     |---------------------------------------|
     |---------------------------------------|
     |---------------------------------------|
     |---------------------------------------|
     |---------------------------------------|
     |-2-0-22^3-0-2-0-2-0-22^3-0-222-222-----|
pm                                                                . . .   . . .

Hope you enjoyed it...there are one or two parts (the prechorus and chorus) - that have 
playing in the background but the volume is so low in the mix I could not make it out. 
you have any suggestions or improvements please let me know!
Добавлено: 08.03.2012
Вам также может быть интересно:
Другие материалы по этой песне:
  • Аккорды и текст

Страница создана 08.03.2012
http://primanota.ru/disarmonia-mundi/the-shape-of-things-to-come-chords.htm
Привет, Гость.
Предлагаем пройти революционный курс по гитаре.
Подарок от PrimaNota.Ru, забирай!