PrimaNota.ru - самый крупный в мире бесплатный архив песенных текстов, аккордов, табулатур и нот


Disarmonia Mundi - Red Clouds - текст песни, таба, видео

Регистрация Запомнить меня
Войти через:  Facebook Google Twitter Vk Yandex Mail.ru

Disarmonia Mundi - Red Clouds - текст песни, таба, видео

Печатать
Просмотров: 245
Уроки эстрадного вокала в Санкт-Петербурге
Авторы: Federico Cagliero
Авторы музыки: Ettore Rigotti
Авторы текста: Claudio Ravinale, Benny Bianco Chinto
-------------------------------------------------------------------------------
                             Red Clouds - Disarmonia Mundi
-------------------------------------------------------------------------------


Tuning B E A D F# B

Intro (0:19) fade in
|---------|
|---------|
|---------|
|---------|
|-2-------|
|-0-------|

Riff 1 (0:21) play 4 times
|----------------------------------------------------|
|----------------------------------------------------|
|----------5--5-----5-5-----5--5---4--4-----4-4------|
|-9--9-----5--5-----5-5-----3--3---4--4-----4-4------|
|-7--7-----3--3-3-3-3-3-3-3-3--3-3-2--2-2-2-2-2-2-2--|
|-0--0-0-0-------------------------------------------|
     x . .    x . .     . .      .      . .     . .

Riff 2a (0:43) play twice
|-----------------------------------------------------------|
|-------------------------------------------------------3~--|
|---------------------------------------------------4-5-----|
|-----------------------------------------------6-7---------|
|-8\7-8\7-----8\7-8\7---------8\7-8\7-----8\7-8-------------|
|---------0-0---------0--0-0----------0-0-------------------|
          . .         .  . .          . .

Riff 2b (0:54) play twice
|-----------------------------------------------------------|
|-------------------------------------------------------3~--|
|---------------------------------------------------4-5-----|
|-----------------------------------------------6-7---------| gtr 1
|-8\7-8\7-----8\7-8\7---------8\7-8\7-----8\7-8-------------|
|---------0-0---------0--0-0----------0-0-------------------|
          . .         .  . .          . .

|-----------------------------------------------------------|
|---------------------------------------------------3-4-7~--|
|-----------------------------------------------5-6---------|
|-7\6-7\6-----7\6-7\6---------7\6-7\6-----7\6-7-------------| gtr 2
|-----------------------------------------------------------|
|---------0-0---------0--0-0----------0-0-------------------|
          . .         .  . .          . .

Riff 3 (1:05) play twice
                  [x2]
|---------------------|--------------------------------------------|
|---------------------|--------------------------------------------|
|---------------------|--------------------------------------------|
|---------------------|--------------------------------------------|
|-2-2--2-2--2-2--2-2--|-2--2--2--2-2--2-2--2-7--7--7--7-7--7-7--7--|
|-0-0--0-0--0-0--0-0--|-3--3--3--3-3--3-3--3-5--5--5--5-5--5-5--5--|
 

Fill 1 (1:27)
|---------------------------------------------------|
|---------------------------------------------------|
|---------------------------------------------------|
|---------------------------------------------------|
|-------------7-7-------------7-7-------------2-2---|
|-0-0-0-0-0-0-----0-0-0-0-0-0-----0-0-0-0-0-0-0-0---|
  R R L L R R L L R R L L R R L L R R L L R R 


Riff 1 x 1 (1:32)
Riff 2a x 1 (1:54)
Riff 2b x 1 (2:05)
Riff 3 x 1 (2:16)
Fill 1 x 1 (2:38)
Riff 1 x 1 (2:43)

Fill 2 (3:05)
|----------------------------------|
|----------------------------------|
|----------------------------------|
|-------------------------------7--|
|---2---5---5-----7---10---10---5--|
|-0-0-0-2-0-3---0-5-0-7--0-8-------|
  .   .   .     .   .    .

Riff 4 (3:11) play 4 times. Note: for guitar 2, { - } indicates 
chord is played on second and fourth time, instead of chord originally transcribed. 

                              [on second and fourth time]
|---------------------------|----------|
|---------------------8---8-|-8p7h8p5--|
|---------4h7p5-5p4-----7---|----------|
|-5h7h9p5-----------5-------|----------| gtr 1
|---------------------------|----------|
|---------------------------|----------|

|---------------------------|----------|
|---------------------------|----------|
|---------------------------|----------|
|-9{7}------------5{7}------|-({7})----| gtr 2
|-7{5}------------3{4}------|-({4})----|
|---------------------------|----------|


Riff 5 (3:22) is much too hard to hear because of the harmonies and keyboard parts. 
I will try and add it later.

Riff 4 x 1 (3:33)

Riff 6 (3:22) Under solo, play twice
                                                           [x2]
|----------------------------------------|---------------------|
|----------------------------------------|---------------------|
|----------------------------------------|---------------------|
|----------------------------------------|---------------------|
|-2-2--2-2--2-2--2-2--7-7--7-7--7-7--7-7-|-2-2--2-2--2-2--2-2--|
|-3-3--3-3--3-3--3-3--5-5--5-5--5-5--5-5-|-0-0--0-0--0-0--0-0--|


Riff 7a (4:05)
|---------------------------------------------------------------------|
|---------------------------------------------------------------------|
|---------7-----------------7-----------------------------------------|
|-----5-------5---------5-------------------9-----------------9-------|
|-3-3---3---3---3-3-3-3---3---3-2-7-----7-------7---------7-------7---|
|---------------------------------5~--5---5---5---5-5-5-5---5---5---5-|
  . .   .   .   . . . .   .   .       .   .   .   . . . .   .   .   .

Riff 7b (4:05) play twice
|-------------------------------------|
|-------------------------------------|
|---------11-----------------11-------|
|-----9--------9---------9--------9---|
|-7-7---7----7---7-7-7-7---7----7---7-|
|-------------------------------------|
  . .   .    .   . . . .   .   .    .

Riff 7a x 1 (4:16)
Riff 7b x 1 (4:21)
Riff 1 x 1 (4:27)
Riff 3 x 1 (4:49)
Fill 1 x 1 (5:11)
End
http://www.doomish.com
Добавлено: 03.05.2012
Другие материалы по этой песне:

Страница создана 26.03.2012
http://primanota.ru/disarmonia-mundi/red-clouds-chords.htm
Привет, Гость.
Предлагаем пройти революционный курс по гитаре.
Подарок от PrimaNota.Ru, забирай!