PrimaNota.ru - самый крупный в мире бесплатный архив песенных текстов, аккордов, табулатур и нот


Disarmonia Mundi - Quicksand Symmetry - текст песни, таба, видео

Регистрация Запомнить меня
Войти через:  Facebook Google Twitter Vk Yandex Mail.ru

Disarmonia Mundi - Quicksand Symmetry - текст песни, таба, видео

Печатать
Просмотров: 264
Авторы: Federico Cagliero
Авторы музыки: Ettore Rigotti
Авторы текста: Claudio Ravinale, Benny Bianco Chinto
Me playing the solo - http://www.youtube.com/watch?v=MuXJfI7UY_Q

Enjoy guys! More on the way... there are a few parts I couldnt tab, such as the guitar
the background of the solo. Some is not perfect, but its just a base - add on to it and
up a more accurate version as soon as you've figured it out.


      Intro - Rythm Guitar


|----------------------------------------------|
|----------------------------------------------|
|----------------------------------------------|
|-0000-0-7777-7-7-8888-8-7777-7-7--------------|
|-0000-0-7777-7-7-8888-8-7777-7-7--------------|
|-0000-0-7777-7-7-8888-8-7777-7-77-------------|

|----------------------------------------------------------------------------|
|----------------------------------------------------------------------------|
|----------------------------------------------------------------------------|
|----------------------------------------------------------------------------|
|-8888-8-1010101010-10-121210h12h10121210-1212121212-12-888888-8-77777-7-----|
|-8888-8-1010101010-10-121210h12h10121210-1212121212-12-888888-8-77777-7-----|


Lead 1


|--13h10-0-13-0-13-12h9-0-12-0-12-0-12h9--x2--13h10-0-13-0-13-0-1315h12-0-15--|
|-----------------------------------------------------------------------------|
|-----------------------------------------------------------------------------|
|-----------------------------------------------------------------------------|
|-----------------------------------------------------------------------------|
|-----------------------------------------------------------------------------|

|-0-15-0-15h12-17h13-0-17h-0-17-0-15h12-0-15-0-15-0-15h12---------------------|
|-----------------------------------------------------------------------------|
|-----------------------------------------------------------------------------|
|-----------------------------------------------------------------------------|
|-----------------------------------------------------------------------------|
|-----------------------------------------------------------------------------|
|--

|-13h10-0-13-0-13-12h9-0-12-0-12-0-12h9---------|
|-----------------------------------------------|
|-----------------------------------------------|
|-----------------------------------------------|
|-----------------------------------------------|
|-----------------------------------------------|

Lead 2

|--17h13-0-17-0-17-0-17-15h12-0-15-0-15-0-15h12-x2--17h13-0-17-0-17-0---------|
|-----------------------------------------------------------------------------|
|-----------------------------------------------------------------------------|
|-----------------------------------------------------------------------------|
|-----------------------------------------------------------------------------|
|-----------------------------------------------------------------------------|


|--18h15-0-18-0-18-0-1820h17-0-20-0-20-18h15-0-18-18-18h15-------------------|
|----------------------------------------------------------------------------|
|----------------------------------------------------------------------------|
|----------------------------------------------------------------------------|
|----------------------------------------------------------------------------|
|----------------------------------------------------------------------------|


|--17h13-0-17-0-17-0-17-15h12-0-15-0-15-0-15h12-|
|-----------------------------------------------|
|-----------------------------------------------|
|-----------------------------------------------|
|-----------------------------------------------|
|-----------------------------------------------|


Verse

|-----------------------------------------------------------|
|-----------------------------------------------------------|
|-----------------------------------------------------------|
|-----------------------2-3---------------------------------|
|----5----3~----5---3-5---------5----3-------0-5-0----------|
|-00---00----00---0--------000---00---0-3h5--- ----5-0------|


Verse Harmony 2nd Guitar

|----------------------------------------------------------|
|----------------------------------------------------------|
|----------------------------------------------------------|
|------------------------5-7-------------------------------|
|----8---8-7~---8---7-8---------8----7-------0-5-0---------|
|-00---0-----00---0----------00---00---0-3h5-------5-0-----|


Break (burn..inside my soul..)

Guitar 1

|---------------------------------------------|
|---------------------------------------------|
|---------------------------------------------|
|-7----7---7---7-----7------5-----------------|
|-----------------88---8-77---7---------------|
|---00---0---0--------------------------------|
pm  . .  .   .    ..   . ..   .

Guitar 2

|---------------------------------------------|
|---------------------------------------------|
|---------------------------------------------|
|-0----------------------------8--------------|
|-0----8----7-8-------8-5------8--------------|
|-0-00---00-----8-888-----88---8--------------|
pm  ..   ..     . ...     ..

Interlude

Rhythm Guitar 1

|----------------------------------------------------|
|----------------------------------------------------|
|--7-777-777-7---------------------------------------|
|--7-777-777-7--8-888-888-8-5-555-555-5-3-3-2-2------|
|--5-555-555-5--8-888-888-8-5-555-555-5-3-3-2-2------|
|---------------8-888-888-8-5-555-555-5-3-3-2-2------|


Lead Harmony

Guitar 2

|---------------------------------------------------------------------------|
|-10~-10-8h10h8-6----10-8h10h8-6-8~-10-8h10h8-6-8-10-11-10h11h10h8-10~------|
|-------------------9~------------------------------------------------------|
|---------------------------------------------------------------------------|
|---------------------------------------------------------------------------|
|---------------------------------------------------------------------------|

Guitar 3

|--------------------------------------------------------------------------|
|--------------------------------------------------------------------------|
|--------------------------------------------------------------------------|
|-10~-10-9h10h9h7-5--10-9h10h9h-5-7~-10-9h10h9-7-5-7-12-10h12h109-10~------|
|--------------------------------------------------------------------------|
|--------------------------------------------------------------------------|


Solo Rhythm

|---------------------------------------------------|
|---------------------------------------------------|
|--7-777-777-7--------------------------------------|
|--7-777-777-7--8-888-888-8-5-555-555-5-3-3-2-2-----|
|--5-555-555-5--8-888-888-8-5-555-555-5-3-3-2-2-----|
|---------------8-888-888-8-5-555-555-5-3-3-2-2-----|

|-----------------------------------------------------------------------------|
|-----------------------------------------------------------------------------|
|--77-77--777-7-9-999-999-9-11-111111-111111-11--12-12-14-14------------------|
|--77-77--777-7-9-999-999-9-11-111111-111111-11--12-12-14-14------------------|
|--55-555-555-5-7-777-777-7--9--9-9-9-9-9-9--9---10-10-12-12------------------|
|-----------------------------------------------------------------------------|


|---------------------------------------------------------|
|---------------------------------------------------------|
|---------------------------------------------------------|
|-0-000-000-0-8888-888-8-5555-5555-3-333-2-222----X2------|
|-0-000-000-0-8888-888-8-5555-5555-3-333-2-222------------|
|-0-000-000-0-8888-888-8-5555-5555-3-333-2-222------------|

Solo

  **WARNING** Solo recorded in E standard, unlike the rest of the song which is in drop 
**WARNING**

|----7^9~----7---7---9---9^11-11h9------7^9----7h9h7---7---------------------|
|--10^12~--7---7---7---7-----------11~-10^12---------10--7-10^11-------------|
|----------------------------------------------------------------------------|
|----------------------------------------------------------------------------|
|----------------------------------------------------------------------------|
|----------------------------------------------------------------------------|


|-7----------------------------------10\9-------------------------------------|
|---10-7--------------------------12-----10-----------------------------------|
|--------9^10-9-7---7--7-9-7-9/11----------11-9~---6^7------------------------|
|------------------7--7---------------------------------7---------------------|
|---------------------------------------------------------7--4-5-4------------|
|------------------------------------------------------------------5-7~-------|


|---------10h14h10-----------------------------------12-15-12-----------------|
|-------13---------13-----------------------------14-----------14-------------|
|-----11--------------11--------------------12-15-----------------15----------|
|---12-------------------12----11~---11-14---------------------------11-12~---|
|-14------------------------14------------------------------------------------|
|-----------------------------------------------------------------------------|


       t                                    t
|-------------14h17-22-17h14----------------------15h19-24-19h15-------------|
|----------15----------------15----------------17-----------------17---------|
|-------14----------------------14----------16----------------------16-------|
|----16----------------------------16----17----------------------------17----|
|-17----------------------------------19-------------------------------------|
|----------------------------------------------------------------------------|

                      t
|--------------17h21-24-21h17---------------------|
|-----------19-----------------19-----------------|
|--------18-----------------------18--------------|
|-----19-----------------------------19-----------|
|--21---------------------------------------------|
|-------------------------------------------------|

|-----------------15^17-15-14-12-12^14-12h10-----------------14h17h14h17h14--|
|-15^17-15-14~-12-----------------------------12~----------15----------------|
|-------------------------------------------------------14-------------------|
|-----------------------------------------------------16---------------------|
|---------------------------------------------------17-----------------------|
|----------------------------------------------------------------------------|


|----------------------------14h17/12h9-------------------------9------------|
|-15----------------------15------------10-------------------10---12~--------|
|----14----------------14------------------11-------------11-----------------|
|-------16----------16------------------------11--------11-------------------|
|----------17h12h17------------------------------12h912----------------------|
|----------------------------------------------------------------------------|


|---------17-19-17h14-10-12-12^14-12^14h12----------------19-17-14-----------|
|--/14-15----------------------------------12~--12-14-15~----------17-15-----|
|------------------------------------------------------------------------16--|
|----------------------------------------------------------------------------|
|----------------------------------------------------------------------------|
|----------------------------------------------------------------------------|


|--12-10---------------------10^12-10^12----------|
|--------12-10---------------13^15-13^15----------|
|--------------11-9-------------------------------|
|-------------------12-9--------------------------|
|------------------------12-----------------------|
|-------------------------------------------------|
Добавлено: 02.04.2012
Другие материалы по этой песне:

Страница создана 02.04.2012
http://primanota.ru/disarmonia-mundi/quicksand-symmetry-chords.htm
Привет, Гость.
Предлагаем пройти революционный курс по гитаре.
Подарок от PrimaNota.Ru, забирай!