PrimaNota.ru - самый крупный в мире бесплатный архив песенных текстов, аккордов, табулатур и нот


Disarmonia Mundi - Flare - текст песни, таба, видео

Регистрация Запомнить меня
Войти через:  Facebook Google Twitter Vk Yandex Mail.ru

Disarmonia Mundi - Flare - текст песни, таба, видео

Печатать
Просмотров: 239
More DM tabs coming soon! Rate and comment!

Intro


Rhythm Guitar - You figure out the strumming pattern...its fairly simple

|---------------------------------------------|
|---------------------------------------------|
|---------------------------------------------|
|-10--6--8---------x8-------------------------|
|-10--6--8------------------------------------|
|-10--6--8------------------------------------|

Lead 1

|------------------------------------------------|
|------------------------------------------------|
|------------------------12-12-------------------|
|--10----10----10h12-------------12-13-12---x2---|
|-----10----10-------10-------10-----------------|
|------------------------------------------------|
pm    .              .        .


Intro Part 2/ Chorus

Lead 1

|-----------------------------------------------|
|-----------------------------------------------|
|--12-10h12h10-----------12---------------------|
|---------------13-12-13----12-10----12~--------|
|----------------------------------13-----------|
|-----------------------------------------------|


|-------------------------------------------------|
|-------------------------------------------------|
|--12-10h12h10-----------12------------------10---|
|---------------13-12-13-----12-10-----12-13------|
|------------------------------------13-----------|
|-------------------------------------------------|

Lead 2

|----------------------------------------------------------------------|
|----------------------------------------------------------------------|
|--8-7h8h7----------8-7------7~----8-7h8h7----------8-7------7-8-10~---|
|-----------10-8-10-----10-8----------------10-8-10-----10-8-----------|
|----------------------------------------------------------------------|
|----------------------------------------------------------------------|


Verse

Guitar 1

|---------------------------------------------------------------|
|---------------------------------------------------------------|
|-----5----5---5----5----5---5----3----3---3----3----3---3------|
|-----5----5---5----5----5---5----3----3---3----3----3---3------|
|--33-3-33-3-3-3-33-3-33-3-3-3-11-1-11-1-1-1-11-1-11-1-1-1------|
|---------------------------------------------------------------|
pm .   . .   .  . .  . .   .  . .   . .  .   . .  . .  .

Guitar 2

|--------------------------------------------------|
|--------------------------------------------------|
|---------------------------------------------12~--|
|-------10---12----13-------10-----12---13---------|
|-10-10---10----10----10-10----10----10---10-------|
|--------------------------------------------------|
pm    .    .     .    .   .     .     .    .

|--------------------------------------------------|
|--------------------------------------------------|
|--------------------------------------------------|
|-------10---12----13-------10-----12---13---10----| x2
|-10-10---10----10----10-10----10----10---10-------|
|--------------------------------------------------|
pm    .    .    .         .     .     .    .

|-----------------------------------------------|
|-----------------------------------------------|
|-------------------------------------------12--|
|-----13----12h13----10----13----12h13----------|
|--10----10-------10----10----10--------10------|
|-----------------------------------------------|
pm   .    .       .      .     .         .

|-------------------------------------------------|
|-------------------------------------------------|
|-------------------------------------------------|
|-----13----12h13----10----13----12h13------------|
|--10----10-------10----10----10--------10--------|
|-------------------------------------------------|
pm .      .       .      .     .         .

|----------------------------------------------------|
|----------------------------------------------------|
|-151515-15h17-13h15-13-12h13h12-10h12h10-8h10h8-----|
|----------------------------------------------------|
|----------------------------------------------------|
|----------------------------------------------------|

Guitar 3 (harmony)

|----------------------------------------------|
|------------------------------------------11--|
|-----12----10h12----------12----12h13---------|
|--10----10-------10-13-10----10-------10------|
|----------------------------------------------|
|----------------------------------------------|
pm  .     .       .      .    .         .

|---------------------------------------------|
|---------------------------------------------|
|-----12----10h12----------12----12h13--------|
|--10----10-------10-13-10----10-------10-----|
|---------------------------------------------|
|---------------------------------------------|
pm .      .                     .

|-----------------------------------------------|
|-----------------------------------------------|
|--121212-12h13-10h12-10-8h10h8-7h8h7-5h7h5-----|
|-----------------------------------------------|
|-----------------------------------------------|
|-----------------------------------------------|


Interlude

|---------------------------------------------|
|---------------------------------------------|
|---------------------------------------------|
|--6--8--10--8--------------------------------|
|--6--8--10--8---x2---------------------------|
|--6--8--10--8--------------------------------|


Chorus 2 - (and I have never lost my way..)

Guitar 1

|----------------------------------------------|
|----------------------------------------------|
|-5--------3-----------------------------------|
|-5--6--1--3------------X4---------------------|
|-3--6--1--1-----------------------------------|
|----6--1--------------------------------------|

Guitar 2

|--------------------------------------------------------------------|
|--------------------------------------------------------------------|
|--------------------------------------------------------------------|
|------------------------------------------5---3h5----88-66-55---5~--|
|-------10----8h10--------10---8h10----------------------------8-----|
|-10-10----10------10-6-6----6------6-1-1---1-----1------------------|
  .       .        .  . .     .     . . .   .     .

Post-Chorus


Guitar 1

|-----------------------------------------------|
|-----------------------------------------------|
|--5--3--5--3-----3-----------------------------|
|--5--3--5--3--1--3-----------------------------|
|--3--1--3--1--1--1-----------------------------|
|--------------1--------------------------------|

Guitar 2

|---------------------------------------------------------------|
|---------------------------------------------------------------|
|--------------------------------------------------88-66-55--5~-|
|---5---3h5--/8~---5---3h5h3-------------------------------8----|
|-3---3----3-----3---3-------6------8---8h10h8------------------|
|-------------------------------8-8---8---------10--------------|
pm    .    .     .   .          . .   .          .
Добавлено: 26.05.2012
Другие материалы по этой песне:
  • Аккорды и текст

Страница создана 26.05.2012
http://primanota.ru/disarmonia-mundi/flare-chords.htm
Привет, Гость.
Предлагаем пройти революционный курс по гитаре.
Подарок от PrimaNota.Ru, забирай!