PrimaNota.ru - самый крупный в мире бесплатный архив песенных текстов, аккордов, табулатур и нот


Disarmonia Mundi - Colors Of A New Era - текст песни, таба, видео

Регистрация Запомнить меня
Войти через:  Facebook Google Twitter Vk Yandex Mail.ru

Disarmonia Mundi - Colors Of A New Era - текст песни, таба, видео

Печатать
Просмотров: 204
Авторы: Federico Cagliero
Авторы музыки: Ettore Rigotti
Авторы текста: Claudio Ravinale, Benny Bianco Chinto
This is Disarmonia Mundi's "Colors of a New Era" from their 2nd album Fragments of
D-Generation. I'm on a mission to tab all their songs so I'll be posting new tabs
soon! Enjoy - it was all pulled by  ear.


                Intro

    |-------------------------------------------------|
    |-------------------------------------------------|
    |-77----77----77----------------------------------|
    |-77----77----77-----88----88----88----88---------|
    |-55-55-55-55-55-55--88----88----88----88---------|
    |--------------------88-88-88-88-88-88-88---------|
pm         .  .          . .          . .             . .          . .           . .

    |--------------------------------------------------------|
    |--------------------------------------------------------|
    |-77----77----77------------------h----------------------|     X2
    |-77----77----77-----88----5------o----------------------|
    |-55-55-55-55-55-55--88----5---- --l---------------------|
    |--------------------88-88-5------d----------------------|
pm          . .          . .          . .


             Chorus/Pre-verse

    |-----------------------------------------------------|
    |-----------------------------------------------------|
    |-----------------------------------------------------|
    |-0-7h8-0-5h7-0-3h5-0-3-0-2-0-2h3---X8------0-2-0-2---|
    |-0-7h8-0-5h7-0-3h5-0-3-0-2-0-2h3-----------0-2-0-2---|
    |-0-7h8-0-5h7-0-3h5-0-3-0-2-0-2h3-----------0-2-0-2---|

 (4th and 8th second time it ends with this)

                        Verse

    |-------------------------------------------------------|
    |-------------------------------------------------------|
    |--77----77-----77--------------------------------------|
    |--77----77-----77------88------------------------------|
    |--55-55-55-555-55-55---88------8---7---8---10~---------|
    |-----------------------88-8888---8---8---7-------------|
pm                                                            . . .           .        .        .


    |------------------------------------------------------------|
    |------------------------------------------------------------|
    |------------------------------------------------------------|
    |---55----55----55-----00----00----00------------------------|     X2
    |---55----55----55-----00----00----00-----5(*)---------------|
    |---55-55-55-55-55-55--00-00-00-00-00-00---------------------|


                  Chorus

    |----------------------------------------------|
    |----------------------------------------------|
    |----------------------------------------------|
    |---88-88--88--88---55-55-55-55----------------|
    |---88-88--88--88---55-55-55-55----------------|
    |---88-88--88--88---55-55-55-55----------------|


    |----------------------------------------------|
    |----------------------------------------------|
    |----------------------------------------------|
    |-0-7h8-0-5h7-0-3h5-0-3-0-2-0-2h3--------------|
    |-0-7h8-0-5h7-0-3h5-0-3-0-2-0-2h3--------------|
    |-0-7h8-0-5h7-0-3h5-0-3-0-2-0-2h3--------------|


                        Bridge 1

    |-------------------------------------------------|
    |-------------------------------------------------|
    |-------------------------------------------------|
    |---33----33----33-----22----22----22-------------|
    |---33----33----33-----22----22----22-------------|
    |---33-33-33-33-33-33--22-22-22-22-22-22----------|
pm              .  .         .  .          .  .           . .           . .          . .

    |-------------------------------------------------|
    |-------------------------------------------------|
    |-------------------------------------------------|
    |---11----11----11-----00----00----00-------------|    X2
    |---11----11----11-----00----00----00-------------|
    |---11-11-11-11-11-11--00-00-00-00-00-00----------|
pm              .  .         .  .          .  .            . .          . .          . .

    |---------------------------------------------|
    |---------------------------------------------|
    |---------------------------------------------|
    |---------------------------------------------|
    |---------------------------------------------|
    |-12-0-8h7-0-7h5-0-3h5-0-5h7-0-7h8------------|
pm         .             .            .             .             .


               Interlude (I see a gray world dying out...)


    |-------------------------------------------------|
    |-------------------------------------------------|
    |-77----77----77----------------------------------|
    |-77----77----77-----88----88----88----88---------|
    |-55-55-55-55-55-55--88----88----88----88---------|
    |--------------------88-88-88-88-88-88-88---------|
pm         .  .          . .          . .             . .          . .           . .


    |-------------------------------------------------------|
    |-------------------------------------------------------|
    |--------------------------------H----------------- X 2-|
    |-00----00----00----88----5------O----------------------|
    |-00----00----00----88----5------L----------------------|
    |-00-00-00-00-00-00-88-88-5------D----------------------|


        Solo


|--------------17----------15----------13-----------------------13----------|
|-----15-13-15----15-13-15----15-13-15----15-13-15--15^17~-15^17--15-13-15~-|
|--14-----------------------------------------------------------------------|
|---------------------------------------------------------------------------|
|---------------------------------------------------------------------------|
|---------------------------------------------------------------------------|


|----------------------------------------------------------10---12---13-------|
|--15h13h11-13~ -----------------------------------------10---10---10---10----|
|---------------12h10-12h10 ---10-12^14-12-10-9-------------------------------|
|---------------------------12-----------------10-12~-------------------------|
|-----------------------------------------------------------------------------|
|-----------------------------------------------------------------------------|


|--12^14-12h10---------13-----15---17----------------------------------------|
|-------------10~---13----13----13----13-15^17-17h15h17~------15~/17-13~-10~-|
|----------------------------------------------------------------------------|
|----------------------------------------------------------------------------|
|----------------------------------------------------------------------------|
|----------------------------------------------------------------------------|


|-------3-5-6-8-10-12-10-8----15-13-12--------17-15-13---------15^17~-------|
|--3-5-6-------------------10---------15-13-12--------17-15-13--------------|
|---------------------------------------------------------------------------|
|---------------------------------------------------------------------------|
|---------------------------------------------------------------------------|
|---------------------------------------------------------------------------|
Добавлено: 06.05.2012
Другие материалы по этой песне:
  • Аккорды и текст

Страница создана 28.03.2012
http://primanota.ru/disarmonia-mundi/colors-of-a-new-era-chords.htm
Привет, Гость.
Предлагаем пройти революционный курс по гитаре.
Подарок от PrimaNota.Ru, забирай!