PrimaNota.ru - самый крупный в мире бесплатный архив песенных текстов, аккордов, табулатур и нот


Disarmonia Mundi - Celestial Furnace - текст песни, таба, видео

Регистрация Запомнить меня
Войти через:  Facebook Google Twitter Vk Yandex Mail.ru

Disarmonia Mundi - Celestial Furnace - текст песни, таба, видео

Печатать
Просмотров: 162
Disarmonia Mundi - Celestial Furnace

Tuning:  Drop B  (B F# B E G# C#)


Intro: x1

C#|---------------------------------------------------|
G#|---------------------------------------------------|
 E|---------------------------------------------------|
 B|--0-00--7-77-8-88-10-1010-0-00-7-77-8-88-5-555555--|
F#|--0-00--7-77-8-88-10-1010-0-00-7-77-8-88-5-555555--|
 B|--0-00--7-77-8-88-10-1010-0-00-7-77-8-99-5-555555--|



Chorus: x2

C#|------------------------------------------------------|
G#|------------------------------------------------------|
 E|------------------------------------------------------|
 B|--0000--7777--8888--10101010--0000--7777--8888--5555--|
F#|--0000--7777--8888--10101010--0000--7777--8888--5555--|
 B|--0000--7777--8888--10101010--0000--7777--8888--5555--|


Verse: x4

C#|------------------------------------------|
G#|------------------------------------------|
 E|------------------------------------------|
 B|--0-0-00-0-000000---0-0-00-------7h8 5h7--|
F#|--0-0-00-0-000000---0-0-00----7h8---------|
 B|--0-0-00-0-000000---0-0-00-88-------------|
PM     -      ------     -


Bridge: x4                                
                             1st & 3rd 2nd & 4th
C#|--------------------------|--------|--------|
G#|--------------------------|--------|--------|
 E|--------------------------|--------|--------|
 B|--3p00--3p00--3p00--3p00--|--0000--|--3532--|
F#|--3p00--3p00--3p00--3p00--|--0000--|--3532--|
 B|--3p00--3p00--3p00--3p00--|--0000--|--3532--|
PM      -     -     -     -     ----     ----


Verse: x2

C#|------------------------------------------|
G#|------------------------------------------|
 E|------------------------------------------|
 B|--0-0-00-0-000000---0-0-00-------7h8 5h7--|
F#|--0-0-00-0-000000---0-0-00----7h8---------|
 B|--0-0-00-0-000000---0-0-00-88-------------|
PM     -      ------     -


Bridge: x4
                             1st & 3rd 2nd & 4th
C#|--------------------------|--------|--------|
G#|--------------------------|--------|--------|
 E|--------------------------|--------|--------|
 B|--3p00--3p00--3p00--3p00--|--0000--|--3532--|
F#|--3p00--3p00--3p00--3p00--|--0000--|--3532--|
 B|--3p00--3p00--3p00--3p00--|--0000--|--3532--|
PM      -     -     -     -     ----     ----


Chorus: x2

C#|------------------------------------------------------|
G#|------------------------------------------------------|
 E|------------------------------------------------------|
 B|--0000--7777--8888--10101010--0000--7777--8888--5555--|
F#|--0000--7777--8888--10101010--0000--7777--8888--5555--|
 B|--0000--7777--8888--10101010--0000--7777--8888--5555--|


Fill:

C#|--------------|
G#|--------------|
 E|--------------|
 B|--0-0-0-0-0---|
F#|--0-0-0-0-0---|
 B|--0-0-0-0-0---|
PM     - 


Verse: x4

C#|------------------------------------------|
G#|------------------------------------------|
 E|------------------------------------------|
 B|--0-0-00-0-000000---0-0-00-------7h8 5h7--|
F#|--0-0-00-0-000000---0-0-00----7h8---------|
 B|--0-0-00-0-000000---0-0-00-88-------------|
PM     -      ------     -


Bridge: x4
                             1st & 3rd 2nd & 4th
C#|--------------------------|--------|--------|
G#|--------------------------|--------|--------|
 E|--------------------------|--------|--------|
 B|--3p00--3p00--3p00--3p00--|--0000--|--3532--|
F#|--3p00--3p00--3p00--3p00--|--0000--|--3532--|
 B|--3p00--3p00--3p00--3p00--|--0000--|--3532--|
PM      -     -     -     -     ----     ----


Chorus: x2
                                                          2nd
C#|------------------------------------------------------|----|
G#|------------------------------------------------------|----|
 E|------------------------------------------------------|----|
 B|--0000--7777--8888--10101010--0000--7777--8888--5555--|-0--|
F#|--0000--7777--8888--10101010--0000--7777--8888--5555--|-0--|
 B|--0000--7777--8888--10101010--0000--7777--8888--5555--|-0--|



Solo: 
Multiple Guitars play during the solos. Alot of over laping.
Not even close to perfect but I managed to get a ruff idea down.
Listen to Song for timing.

C#|----------------------------------------|
G#|----------------------------------------|
 E|----------------------------------------|
 B|--s////8-7-5~3~-8-7-5~3~-8-7-5~3~2~3~5--|
F#|----------------------------------------|
 B|----------------------------------------|

C#|-------------------------------------------17----17-----15--17-1718--|
G#|-----18----18---------20b-18b---181715-15h17-15h17--15h17--15--------|
 E|--19----19----19b-p17------------------------------------------------|
 B|---------------------------------------------------------------------|
F#|---------------------------------------------------------------------|
 B|---------------------------------------------------------------------|

C#|--------------------------------------------------------------------|
G#|----------------------------------------------------14h15-14h15s18--|
 E|-------------------14h15-14h15-15h17-15h17--------------------------|
 B|--12h15-12h15-------------------------------------------------------|
F#|--------------------------------------------------------------------|
 B|--------------------------------------------------------------------|

C#|-----------------------------------------------------|
G#|-----------------------------------------------------|
 E|-----------------------------------------------------|
 B|--12-10------------------------12-10-----------------|
F#|----------12-13~--12-10-7-8---------12-13~-12-10-7-8-|              
 B|-----------------------------------------------------|

C#|-----------------------------------------|
G#|-----------------------------------15~~~-|
 E|------------------------12h15-12h15------|
 B|-------------12h15-12h15-----------------|
F#|--12h15-12h15----------------------------|
 B|-----------------------------------------|

C#|-----------------------------------------------|
G#|-----------------------------------------------|
 E|-----------------------------------------------|
 B|--12~----12h14h15s17-15-14-15-14h15p14s12s10~~-| x4
F#|-------12~-------------------------------------|
 B|-----------------------------------------------|



Chorus: x2

C#|------------------------------------------------------|
G#|------------------------------------------------------|
 E|------------------------------------------------------|
 B|--0000--7777--8888--10101010--0000--7777--8888--5555--|
F#|--0000--7777--8888--10101010--0000--7777--8888--5555--|
 B|--0000--7777--8888--10101010--0000--7777--8888--5555--|

Great Song. Amazing Band.
Добавлено: 22.03.2012
Другие материалы по этой песне:

Страница создана 22.03.2012
http://primanota.ru/disarmonia-mundi/celestial-furnace-chords.htm
Привет, Гость.
Предлагаем пройти революционный курс по гитаре.
Подарок от PrimaNota.Ru, забирай!