PrimaNota.ru - самый крупный в мире бесплатный архив песенных текстов, аккордов, табулатур и нот


Dirtyphonics - Walk in the Fire - текст песни, таба, видео

Регистрация Запомнить меня
Войти через:  Facebook Google Twitter Vk Yandex Mail.ru

Dirtyphonics - Walk in the Fire - текст песни, таба, видео

Печатать
Просмотров: 148
Уроки эстрадного вокала в Санкт-Петербурге
Dirtyphonics - Walk In The Fire 
Tuning: Standard (EADGBE)
Capo on the 1st fret
Key: Fm (F minor)



Intro
                                                        x3
|-------------------------------|--------------------------|
|-------------------------------|--------------------------|
|-------------------------------|--------------------------|
|-------------------------------|--------------------------|
|----------------11h12p11-9h11--|---------------4-3--------|
|--1-1-1--1--1------------------|--1-1-1--1--1--2-1--1--1--|

                                                                }x2
                                                   x1
|-------------------------|---------------------------|
|-------------------------|---------------------------|
|-------------------------|---------------------------|
|-------------------------|----------------------6\5--|
|----------6-----------7--|----------4-----------4\3--|
|--1-1-1-1-4---1-1-1-1-5--|--1-1-1-1-2---1-1-1-1------|



                                                        x3
|-------------------------------|--------------------------|
|-------------------------------|--------------------------|
|-------------------------------|--------------------------|
|----------------10h11p10-8h10--|--------------------------|
|-------------------------------|---------------4-3--------|
|--1-1-1--1--1------------------|--1-1-1--1--1--2-1--1--1--|

                                                                }x2
                                                   x1
|-------------------------|---------------------------|
|-------------------------|---------------------------|
|-------------------------|---------------------------|
|-------------------------|----------------------6\5--|
|----------6-----------7--|----------4-----------4\3--|
|--1-1-1-1-4---1-1-1-1-5--|--1-1-1-1-2---1-1-1-1------|



Bridge I

|----------------------------|----------------------|
|----------------------------|----------------------|
|-------------/10~-----------|----------------------|
|--3~---------/10~-----------|--3~------------------|
|--3~---------/8~------------|--3~------------------|
|--1~------------------------|--1~------------------|

                                                        }x2


|---------------------------|-----------------------|
|---------------------------|-----------------------|
|---------------------------|-----------------------|
|---------------------------|-----------------------|
|------11h12p11-----9h11p9--|------8h9p8-----6h8p6--|
|--1-1----------1-1---------|--1-1-------1-1--------|


                   x4
|--------------------|
|--------------------|
|--------------------|
|--------------------|
|--------------------|
|--1--4--2h4h5--4p2--|


                       x2                         x2
|------------------------|---------------------------|
|------------------------|---------------------------|
|------------------------|--10--13--11h13h14--13p11--|
|------------------------|---------------------------|
|--8--11--9h11h12--11p9--|---------------------------|
|------------------------|---------------------------|


                                                Walk in the fire...
|------------------------|---------------------------|
|------------------------|---------------------------|
|--10-10-10-10-10-10-10--|--10~----------------------|
|------------------------|---------------------------|
|--8--8--8--8--8--8--8---|--8~-----------------------|
|------------------------|---------------------------|




Riff I

|--------------/13--13------------------|--------------------------------|
|---------------------------------------|--------------------------------|
|--10-10-------/10--10------------------|--10----------------------------|
|---------------------------------------|--------------------------------|
|--8--8--3-3-------------9h11h12--11p9--|--8--3-3---3--3-3---6h8h9--8----|
|--------1-1----------------------------|-----1-1---1--1-1------------9--|




|--------------/13--13----------------|---------------------------------------------------|
|-------------------------------------|---------------------------------------------------|
|--10-10-------/10--10----------------|---------------------------------------------------|
|-------------------------------------|----------------------------------------------6\5--|
|--8--8--3-3-------------12p9p8--9p8--|----------6-----------7-----------4-----------4\3--|
|--------1-1--------------------------|--1-1-1-1-4---1-1-1-1-5---1-1-1-1-2---1-1-1-1------|



|--------------/13--13-----------------|-------------------------------|
|--------------------------------------|-------------------------------|
|--10-10-------/10--10-----------------|--10---------------------------|
|--------------------------------------|-------------------------------|
|--8--8--3-3------------9h11h12--11p9--|--8--3-3---3--3-3--6h8h9--8----|
|--------1-1---------------------------|-----1-1---1--1-1-----------9--|




|--------------/13--13-----------------|--------------------------------------|
|--------------------------------------|--------------------------------------|
|--10-10-------/10--10-----------------|--------------------------------------|
|--------------------------------------|--------------------------------------|
|--8--8--3-3-------------12p9p8---9p8--|--------------------------------------|
|--------1-1---------------------------|--1--4--2h4h5--4p2--1--4--2h4h5--4p2--|



Riff II

|---------------------------|-----------------------------------------|
|---------------------------|-----------------------------------------|
|---------------------------|----------10-10--------------------------|
|------4--------4------8-8--|------4-------------4--------------------|
|----------------------6-6--|----------8--8------------9h11h12--11p9--|
|--1-2---1---1----1---------|--1-2---1--------1----1------------------|

                                                                        }x2

|---------------------------|-----------------------------------------|
|---------------------------|-----------------------------------------|
|---------------------------|----------10-10--------------------------|
|------4--------4------8-8--|------4-------------4--------------------|
|----------------------6-6--|----------8--8------------12p9p8--9p8----|
|--1-2---1---1----1---------|--1-2---1--------1----1------------------|



Then back to Riff I


Bridge II

|---------------------------|----------------------------------------|
|---------------------------|----------------------------------------|
|---------------------------|--/10~----------------10~---------------|
|---------------------------|--/10~----------------10~---------------|
|--3~---------3~------------|--/8~-----------------8~----------------|
|--1~---------1~------------|----------------------------------------|


                                                                                x2
|-----------------------------------------|----------------------------------------|
|--------------------------------------7--|----------------------------------------|
|--------------------------------------6--|----------------------------------------|
|--------------------------------------4--|-------------------------------------4--|
|------3--------3--------3----------------|------3--------3--------3------------4--|
|--1-1-1----1-1-1----1-1-1----1-1-1-1-----|--1-1-1----1-1-1----1-1-1----1-1-1-1-2--|



Riff III

|-----------------------------------------|----------------------------------------|
|--------------------------------------7--|----------------------------------------|
|--------------------------------------6--|----------------------------------------|
|--------------------------------------4--|-------------------------------------4--|
|------3--------3--------3----------------|------3--------3--------3------------4--|
|--4-2-1----5-2-1----4-2-1----1-1-1-1-----|--4-2-1----5-2-1----4-2-1----1-1-1-1-2--|
                                                                                               
 }x2 (without the final part)

|-----------------------------------------|------------------------------------------------|
|--------------------------------------7--|------------------------------------------------|
|--------------------------------------6--|------------------------------------------------|
|--------------------------------------4--|-------------------------------------------6\5--|
|------3--------3--------3----------------|----------6----------7----------4----------4\3--|
|--4-2-1----5-2-1----4-2-1----1-1-1-1-----|--1-1-1-1-4--1-1-1-1-5--1-1-1-1-2--1-1-1-1------|



Back to Riffs I & II


Outro

|-------------------------------------------------|-------------------------------------------------|
|-------------------------------------------------|-------------------------------------------------|
|-------------------------------------------------|-------------------------------------------------|
|-------------------------------6-----------------|-----------------------------6-8-----------------|
|--------9------9------8------9-------9-------9-6-|--------9------9------8--------------9-------4-6-|
|-1--1-1----1-1----1-1----1-1-----1-1---1-1-1-----|-1--1-1----1-1----1-1----1-1-----1-1---1-1-1-----|



|-------------------------------------------------|----------------------------------------------------|
|-------------------------------------------------|----------------------------------------------------|
|-------------------------------------------------|-----------------------------10~--------------------|
|-------------------------------6-----------------|-----------------------------10~--------------------|
|--------9------9------8------9-------9-------9-6-|--------9------9------8------8~---------------------|
|-1--1-1----1-1----1-1----1-1-----1-1---1-1-1-----|-1--1-1----1-1----1-1----1-1-----1--1-1-1---1--1--1-|
Добавлено: 27.12.2015
Другие материалы по этой песне:
  • Аккорды и текст

Страница создана 14.09.2014
http://primanota.ru/dirtyphonics/walk-in-fire-chords.htm
Привет, Гость.
Предлагаем пройти революционный курс по гитаре.
Подарок от PrimaNota.Ru, забирай!