PrimaNota.ru - самый крупный в мире бесплатный архив песенных текстов, аккордов, табулатур и нот


Dirty Thrills - No Resolve - таба, видео

Регистрация Запомнить меня
Войти через:  Facebook Google Twitter Vk Yandex Mail.ru

Dirty Thrills - No Resolve - таба, видео

Печатать
Просмотров: 76
Dirty Thrills - No Resolve

DROP D

Youtube Link to Official Music Video 
https://www.youtube.com/watch?v=BPPisa4PLwE

INTRO

Electric
E|----------------------------------------------------------------------|
B|----------------------------------------------------------------------|
G|----------------------------------------------------------------------|
D|-----------3------------3---------------------3------------3----3/5-3-| x4
A|---0h3h5-5---5--0h3h5-5---5-3---------0h3h5-5---5--0h3h5-5---5--------|
D|-0-----------------------------3----0---------------------------------|



VERSE

Electric
E|-------------|
B|-------------|
G|-------------|
D|-----------3-| X8
A|----5--3-5---|
D|-0-----------|


CHORUS

Electric
E|----------------------------------------------------------------------|
B|----------------------------------------------------------------------|
G|----------------------------------------------------------------------|
D|-----------3------------3---------------------3------------3----3/5-3-| x4
A|---0h3h5-5---5--0h3h5-5---5-3---------0h3h5-5---5--0h3h5-5---5--------|
D|-0-----------------------------3----0---------------------------------|


POST-CHORUS

Electric 2
(Clean with delay)

E|------------|
B|---------13-|
G|-----10-----|
D|-12---------|
A|------------|
D|------------|


Electric
E|-------------|
B|-------------|
G|-------------|
D|-----------3-| 
A|----5--3-5---|
D|-0-----------|


PLAY VERSE 

PLAY CHORUS

SOLO PART 1

Electric 1
E|------------------------------------|
B|--------------------------**--------|
G|----9h10r9r7----9h10r9r7--99-10/12--|
D|------------------------------------| x4
A|------------------------------------|
D|-0------------0---------------------|



SOLO PART 2

E|-------------------------------------------------------------------------
B|-14bb--------------------------18-18----14bb-----------------------------
G|-14bb-12b(v)-12(v)----------------------14bb-12(v)-----14r12----12-------
D|-12bb--------------14h15r14r12----------12bb-------15--------15----12(v)-
A|-------------------------------------------------------------------------
D|-------------------------------------------------------------------------

--------------------------------------------------------------------------------
-9bb-6(v)-9bb-6(v)-9bb-8-8---------------------17h18-18x5-18r17-17x5-17r15-15x5-
-8bb------8bb------8bb------9-10-9-7-9h10r9r7-----------------------------------
--------------------------------------------------------------------------------
--------------------------------------------------------------------------------
--------------------------------------------------------------------------------

------------------------------|
-13-10-13--15b(v)--13-10------|
-------------------------7(v)-|
------------------------------|
------------------------------|
------------------------------|

POST 

Electric 
E|-------|
B|-------|
G|-10--7-|
D|-------|
A|-------|
D|-------|

PLAY CHORUS
Добавлено: 27.12.2015
Другие материалы по этой песне:
  • Аккорды и текст

Страница создана 27.12.2015
http://primanota.ru/dirty-thrills/no-resolve-chords.htm
Привет, Гость.
Предлагаем пройти революционный курс по гитаре.
Подарок от PrimaNota.Ru, забирай!