PrimaNota.ru - самый крупный в мире бесплатный архив песенных текстов, аккордов, табулатур и нот


Dirty Rotten Imbeciles - Yes Maam - текст песни, таба, видео

Регистрация Запомнить меня
Войти через:  Facebook Google Twitter Vk Yandex Mail.ru

Dirty Rotten Imbeciles - Yes Maam - текст песни, таба, видео

Печатать
Просмотров: 171
yes ma'am


D.R.I.


TRANSCRIBED BY RUDY GUZMAN


guzman_84@hotmail.com

         Bar
e:-----------\-----/----------------------|
B:------------\---/-----------------------|
G:-------------\-/------------------------|
D:--9-----(9)--------------7---9---10--5--|
A:--7-----(7)--------------5---7---8---3--|
E:----------------------------------------|

verse                                  pick slide 
e:-------------------------------------------------|
B:-------------------------------------------------|
G:-------------------------------------------------|
D:-9999-7-9--55555----5--9999-7-9--5---------------|
A:-7777-5-7--33333--2-3--7777-5-7--3---x\----------|
E:-------------------------------------x\----------|

e:--------------------------|
B:--------------------------|
G:--------------------------|
D:-9999-7-9--5--9999-7-9--5-|
A:-7777-5-7--3--7777-5-7--3-|
E:--------------------------|

e:---------------------------------------------|
B:---------------------------------------------|
G:---------------------------------------------|
D:-9999-7-9--55555----5--9999-7-9--55555----5--|
A:-7777-5-7--33333--2-3--7777-5-7--33333--2-3--|
E:---------------------------------------------|

e:---------------------------------------------|
B:---------------------------------------------|
G:---------------------------------------------|
D:-9999-7-9--55555----5--9999-7-9--55555----5--|
A:-7777-5-7--33333--2-3--7777-5-7--33333--2-3--|
E:---------------------------------------------|

e:---------------------------------------------|
B:---------------------------------------------|
G:---------------------------------------------|
D:-9999-7-9--55555----5--9999-7-9--55555----5--|
A:-7777-5-7--33333--2-3--7777-5-7--33333--2-3--|
E:---------------------------------------------|

e:---------------------------------------------|
B:---------------------------------------------|
G:---------------------------------------------|
D:-9999-7-9--55555----5--9999-7-9--55555----5--|
A:-7777-5-7--33333--2-3--7777-5-7--33333--2-3--|
E:---------------------------------------------|

e:---------------------------------------------|
B:---------------------------------------------|
G:---------------------------------------------|
D:-9999-7-9--55555----5--9999-7-9--55555----5--|
A:-7777-5-7--33333--2-3--7777-5-7--33333--2-3--|
E:---------------------------------------------|


:------------------------------------------------------------------------------------------|
:------------------------------------------------------------------------------------------|
:------------------------------------------------------------------------------------------|
:-------------------9\7/9-------------------9\7/9-------------------9\7/9------------------|
:-9-9--10-9-7--9-9--7\5/7-9-9--10-9-7--9-9--7\5/7-9-9--10-9-7--9-9--7\5/7-9-9--10-9-7--9-9-|
:-7-7--8--7-5--7-7--------7-7--8--7-5--7-7--------7-7--8--7-5--7-7--------7-7--8--7-5--7-7-|

e:--------|
B:--------|
G:--------|
D:-6-7-8--|
A:-4-5-6--|
E:--------|


e:----------------------------------------------------------------|
B:----------------------------------------------------------------|
G:----------------------------------------------------------------|
D:-9-9-10-9-7--9-9-10-9-7--9-9-10-9-7--9-9-10-9-7--9-9-10-9-7--9--|
A:-7-7-8--7-5--7-7-8--7-5--7-7-8--7-5--7-7-8--7-5--7-7-8--7-5--7--|
E:----------------------------------------------------------------|

:-------------------------------------------------------|
:-------------------------------------------------------|
:-------------------------------------------------------|
:-10---8--10--11---4---10---8--10--11---4----4-4-4-4-4--|
:-8----6--8---9----2---8----6--8---9----2----2-2-2-2-2--|
:-------------------------------------------------------|

                  Bar                                      Bar
:---------------------------------------------------------------\-------/\----------------/|
:----------------------------------------------------------------\-----/--\--------------/-|
:----------------------------------------2h4p2-3h5p3-5h7p5--5h7p5-5h7p5-5h7p5-5h7p5-5h7p5--|
:-10---8--10--11---4-----10---8--10--11----------------------------------------------------|
:-8----6--8---9----2-----8----6--8---9-----------------------------------------------------|
:------------------------------------------------------------------------------------------|

:---------------------------------------------------------------------------------------|
:---------------------------------------------------------------------------------------|
:----------------------19tp15p12-19tp15p12-19tp15p12-19tp15p12-19tp15p12-19tp15p12--10B-|
:-10---8--10--11---4--------------------------------------------------------------------|
:-8----6--8---9----2--------------------------------------------------------------------|
:---------------------------------------------------------------------------------------|

e:------------|
B:------------|
G:-7h9p7--4B--|
D:------------|
A:------------|
E:------------|

:------------------------------------------|
:------------------------------------------|
:------------------------------------------|
:-10---8--10--11---4-----------------5-----|
:-8----6--8---9----2-----------------3-----|
:-----------------------------12\----------|

e:---------------------------------------------|
B:---------------------------------------------|
G:---------------------------------------------|
D:-9999-7-9--55555----5--9999-7-9--55555----5--|
A:-7777-5-7--33333--2-3--7777-5-7--33333--2-3--|
E:---------------------------------------------|

e:---------------------------------------------|
B:---------------------------------------------|
G:---------------------------------------------|
D:-9999-7-9--55555----5--9999-7-9--55555----5--|
A:-7777-5-7--33333--2-3--7777-5-7--33333--2-3--|
E:---------------------------------------------|

e:---------------------------------------------|
B:---------------------------------------------|
G:---------------------------------------------|
D:-9999-7-9--55555----5--9999-7-9--55555----5--|
A:-7777-5-7--33333--2-3--7777-5-7--33333--2-3--|
E:---------------------------------------------|

e:-------------|
B:-------------|
G:-------------|
D:-9999-7-9--5-|
A:-7777-5-7--3-|
E:-------------|
Добавлено: 12.06.2012
Другие материалы по этой песне:
  • Аккорды и текст

Страница создана 07.04.2012
http://primanota.ru/dirty-rotten-imbeciles/yes-maam-chords.htm
Привет, Гость.
Предлагаем пройти революционный курс по гитаре.
Подарок от PrimaNota.Ru, забирай!