PrimaNota.ru - самый крупный в мире бесплатный архив песенных текстов, аккордов, табулатур и нот


Dirty Rotten Imbeciles - Thrashhard - таба, видео

Регистрация Запомнить меня
Войти через:  Facebook Google Twitter Vk Yandex Mail.ru

Dirty Rotten Imbeciles - Thrashhard - таба, видео

Печатать
Просмотров: 87
Dirty rotten imbeciles - Thrashhard
Alright i tabbed this as the intro,because im not sure 100% about
it really,but i recognized no one has tabbed this,so im gonna see
what i can do.
Im gonna write the riffs in parts,and you can piece it together.
Just for the record.I dont give a shit if you like it or
not...make it better if you think its wrong,dont complain.
Intro
e-----------------------------------------------|
b-----------------------------------------------|
g-----------------------------------------------|
d-----------------------------------------------|
a-------7-----5-----5---7-----3-----------------|
e-0-\1--5-0-0-3-0-0-3-0-5-0-0-5-----1-1-1-1-1-1-|
Play that many times Then


Riff 2 Same as the intro just much slower.
e------------------------------------------------------|
b------------------------------------------------------|
g------------------------------------------------------|
d------------------------------------------------------|
a-\5-----\7----------\5---\7---------------------------|
e-\3-0-0-\5--0-0-0-0--\3-0-\5-0-1-2-2-2-2-2--1-1-1-1-1-|

Fill for riff 2.This is specifically played AFTER riff three
is played many times.
e-----------------------------------------------------|
b-----------------------------------------------------|
g---------------5h7-----------------------------------|
d-----------5h7--------2--3-2-------------------------|
a------5h7-------------0--1-0-------------------------|
e-5h7-------------------------1-2-2-2-2-2-1-1-1-1-1-0-|

This is riff 4,played SEVERAL TIMES before only the bass kicks in
e-------------------------------------------------|
b-------------------------------------------------|
g-------------------------------------------------|
d-------------------------------------------------|
a-------------------------------------------------|
e-5555-7777-8888---5555-7777-8888--5555-7777-8888-|

Outro
e----------------------------------------|
b----------------------------------------|
g----------------------------------------|
d----------------------------------------|
a----------------\5---\7-0-0-0-\5-0-0-\7-|
e-13////////////-\3-0-\5-0-0-0-\3-0-0-\5-|

Thats it,i know its scattered kinda....but look....you can
figure it out.Instead of bitchin at me if i got anything wrong
please save it and correct it in the comments box.And i will rewrite and post any corrections.
Добавлено: 21.06.2012
Другие материалы по этой песне:
  • Аккорды и текст

Страница создана 21.06.2012
http://primanota.ru/dirty-rotten-imbeciles/thrashhard-chords.htm
Привет, Гость.
Предлагаем пройти революционный курс по гитаре.
Подарок от PrimaNota.Ru, забирай!