PrimaNota.ru - самый крупный в мире бесплатный архив песенных текстов, аккордов, табулатур и нот


Dirty Rotten Imbeciles - All For Nothing - текст песни, таба, видео

Регистрация Запомнить меня
Войти через:  Facebook Google Twitter Vk Yandex Mail.ru

Dirty Rotten Imbeciles - All For Nothing - текст песни, таба, видео

Печатать
Просмотров: 67
-------------------------------------------------------------------------------
                             SONG NAME - Band Name
-------------------------------------------------------------------------------
Tabbed by: MetalEngulfer
Youtube: https://www.youtube.com/user/MetalEngulfer

Tuning: Standard E

Intro Riff 1(00:09)     
e|---------------------------------------------------------------------------|
B|---------------------------------------------------------------------------|
G|---------------------------------------------------------------------------|
D|---------------------------------------------------------------------------|
A|-9-----5-----4-----7-----9-----5-----7-----8-------------------------------|
E|-7-0-0-3-0-0-2-0-0-5-0-0-7-0-0-3-0-0-5-0-0-6-------------------------------|

e|---------------------------------------------------------------------------|
B|---------------------------------------------------------------------------|
G|---------------------------------------------------------------------------|
D|---------------------------------------------------------------------------|
A|-9-----5-----4-----7-----9-----5-----7-----3-------------------------------|
E|-7-0-0-3-0-0-2-0-0-5-0-0-7-0-0-3-0-0-5-0-0-1-------------------------------| x3

Intro Riff 2(00:39)
e|---------------------------------------------------------------------------|
B|---------------------------------------------------------------------------|
G|---------------------------------------------------------------------------|
D|---------------------------------------------------------------------------|
A|-2-------------------------------------------------------------------------|
E|-0-------------------------------------------------------------------------|

e|---------------------------------------------------------------------------|
B|---------------------------------------------------------------------------|
G|---------------------------------------------------------------------------|
D|---------------------------------------------------------------------------|
A|-------------2-2----2------------------------------------------------------|
E|-0-0-0-0-0-0-0-0-00-0------------------------------------------------------| x4

e|---------------------------------------------------------------------------|
B|---------------------------------------------------------------------------|
G|---------------------------------------------------------------------------|
D|--------------------7--------------------9---------------------------------|
A|-------------2-2----5-------------2-2----7---------------------------------|
E|-0-0-0-0-0-0-0-0-00---0-0-0-0-0-0-0-0-00-----------------------------------|x3

e|---------------------------------------------------------------------------|
B|---------------------------------------------------------------------------|
G|---------------------------------------------------------------------------|
D|--------------------7--------------------10--------------------------------|
A|-------------2-2----5-------------2-2----8---------------------------------|
E|-0-0-0-0-0-0-0-0-00---0-0-0-0-0-0-0-0-00-----------------------------------|x1

Main Riff
e|---------------------------------------------------------------------------|
B|---------------------------------------------------------------------------|
G|---------------------------------------------------------------------------|
D|-9-9----9-9-12-7-10----9-9---9-9------12-14-9----------------9-------------|
A|-7-7-77-7-7-10-5-8-----7-7-7-7-7-10-9-10-12-7----------------7-------------|
E|---------------------------------8--7--------------------------------------|x1

e|---------------------------------------------------------------------------|
B|---------------------------------------------------------------------------|
G|---------------------------------------------------------------------------|
D|-9-9----9-9-12-7-10----9-9---9-9------12-14-9------------------------------|
A|-7-7-77-7-7-10-5-8-----7-7-7-7-7-10-9-10-12-7------------------------------|
E|---------------------------------8--7--------------------------------------|x4

Will be continued! 
************************************

| /   slide up
| \   slide down
| h   hammer-on
| p   pull-off
| ~   vibrato
| +   harmonic
| x   Mute note
| b   Bend
| pb  Pre-bend
| br  Bend release
| pbr Pre-bend release
| brb Bend release bend

************************************
Добавлено: 31.12.2015
Другие материалы по этой песне:
  • Аккорды и текст

Страница создана 02.03.2012
http://primanota.ru/dirty-rotten-imbeciles/all-for-nothing-chords.htm
Привет, Гость.
Предлагаем пройти революционный курс по гитаре.
Подарок от PrimaNota.Ru, забирай!